Oops, an error
Loading. Please wait.

Violins bass

version 2
version 2

Whole song

Interactive

773 views 1 this week
no commentswrite comment
1 2 3 4 5
1 last vote to show rating
add to favorites
×
Save as Personal and add changes to this tab that will be seen only by you. Learn more ›
×
You can save this tab as Personal to edit and correct it or add notes. All changes will be seen only by you. Learn more »
launch autoscroll
font size
0
reset
guitar tuner
edit
Autoscroll
slow
fast
+/-
esc
set tempo
stop
Author
     Q    E  E  E  E  E  E     E  E  E  E  E  E  E  E     Q    E  E  E  E  E  E
G||-------------------------|--------------------------|-------------------------|
D||-------------------------|--------------------------|-------------------------|
A||--3----3--3--3--3--3--3--|--3--3--3--3--3--3--3--3--|--5----5--5--5--5--5--5--|
E||-------------------------|--------------------------|-------------------------|


  E  E  E  E  E  E  E  E     Q    E  E  E  E  E  E     E  E  E  E  E  E  E  E
--------------------------|-------------------------|--------------------------|
--------------------------|--2----2--2--2--2--2--2--|--2--2--2--2--2--2--2--2--|
--5--5--5--5--5--5--5--5--|-------------------------|--------------------------|
--------------------------|-------------------------|--------------------------|


  Q    E  E  E  E  E  E     E  E  E  E  E  E  E  E     Q    E  E  E  E  E  E
-------------------------|--------------------------|-------------------------|
--3----3--3--3--3--3--3--|--3--3--3--3--3--3--3--3--|-------------------------|
-------------------------|--------------------------|--3----3--3--3--3--3--3--|
-------------------------|--------------------------|-------------------------|


  E  E  E  E  E  E  E  E     Q    E  E  E  E  E  E     E  E  E  E  E  E  E  E
--------------------------|-------------------------|--------------------------|
--------------0--2--0-----|-------------------------|--------------2--3--2-----|
--3--3--3--3-----------3--|--5----5--5--5--5--5--5--|--5--5--5--5-----------5--|
--------------------------|-------------------------|--------------------------|


  Q    E  E  E  E  E  E     E  E  E  E  E  E  E  E     Q    E  E  E  E  E  E
-------------------------|--------------------------|-------------------------|
--2----2--2--2--2--2--2--|--2--2--2--2--3--5--3--2--|--3----3--3--3--3--3--3--|
-------------------------|--------------------------|-------------------------|
-------------------------|--------------------------|-------------------------|


  E  E  E  E  E  E  E  E     Q    E  E  E  E  E  E     E  E  E  E  E  E  E  E
--------------------------|-------------------------|--------------------------|
--3--3--3--3--3--2--0--2--|-------------------------|--------------0--2--0-----|
--------------------------|--3----3--3--3--3--3--3--|--3--3--3--3-----------3--|
--------------------------|-------------------------|--------------------------|


  Q    E  E  E  E  E  E     E  E  E  E  E  E  E  E     Q    E  E  E  E  E  E
-------------------------|--------------------------|-------------------------|
-------------------------|--------------2--3--2-----|--2----2--2--2--2--2--2--|
--5----5--5--5--5--5--5--|--5--5--5--5-----------5--|-------------------------|
-------------------------|--------------------------|-------------------------|


  E  E  E  E  E  E  E  E     Q    E  E  E  E  E  E     E  E  E  E  E  E  E  E
--------------------------|-------------------------|--------------------------|
--2--2--2--2--3--5--3--2--|--3----3--3--3--3--3--3--|--3--3--3--3--3--2--0--2--|
--------------------------|-------------------------|--------------------------|
--------------------------|-------------------------|--------------------------|


  Q    E  E  E  E  E  E     E  E  E  E  E  E  E  E     Q    E  E  E  E  E  E
-------------------------|--------------------------|-------------------------|
-------------------------|--------------0--2--0-----|-------------------------|
--3----3--3--3--3--3--3--|--3--3--3--3-----------3--|--5----5--5--5--5--5--5--|
-------------------------|--------------------------|-------------------------|


  E  E  E  E  E  E  E  E     Q    E  E  E  E  E  E     E  E  E  E  E  E  E  E
--------------------------|-------------------------|--------------------------|
--------------2--3--2-----|--2----2--2--2--2--2--2--|--2--2--2--2--3--5--3--2--|
--5--5--5--5-----------5--|-------------------------|--------------------------|
--------------------------|-------------------------|--------------------------|


  Q    E  E  E  E  E  E     E  E  E  E  E  E  E  E     Q    E  E  E  E  E  E
-------------------------|--------------------------|-------------------------|
--3----3--3--3--3--3--3--|--3--3--3--3--3--2--0--2--|-------------------------|
-------------------------|--------------------------|--3----3--3--3--3--3--3--|
-------------------------|--------------------------|-------------------------|


  E  E  E  E  E  E  E  E     Q    Q    E  E  E  E     E  E  E  E  E  E  E  E
--------------------------|------------------------|--------------------------|
--------------------------|------------------------|--------------------------|
--3--3--3--3--3--3--3-----|------------------------|--------------------------|
-----------------------3--|--L----3----3--3--3--3--|--3--3--3--3--3--3--3--5--|


  Q    Q    E  E  E  E     E  E  E  E  E  E  E  E     Q    Q    E  E  E  E
------------------------|--------------------------|------------------------|
------------------------|-----------------------3--|--L----3----3--3--3--3--|
------------------------|--------------------------|------------------------|
--L----5----5--5--5--5--|--5--5--5--5--5--5--5-----|------------------------|


  E  E  E  E  E  E  Q       Q    E  E  E  E  E  E     E  E  E  E  E  E  E  E
-------------------------|-------------------------|-----------------------3--|
--3--3--3--3--3--3--5----|-------------------------|--------------------------|
-------------------------|--3----3--3--3--3--3--3--|--3--3--3--3--3--3--3-----|
-------------------------|-------------------------|--------------------------|


  Q    Q    E  E  E  E     E  E  E  E  E  E  E  E     Q    Q    E  E  E  E
--L----3----3--3--3--3--|--3--3--3--3--3--3--3-----|------------------------|
------------------------|-----------------------3--|--L----3----3--3--3--3--|
------------------------|--------------------------|------------------------|
------------------------|--------------------------|------------------------|


  E  E  E  E  E  E  E  E     Q    Q    E  E  E  E     E  E  E  E  E  E  E  E
--------------------------|------------------------|--------------------------|
--3--3--3--3--3--3--3--5--|--L----5----5--5--5--5--|--5--5--5--5--5--5--5--5--|
--------------------------|------------------------|--------------------------|
--------------------------|------------------------|--------------------------|


  Q    E  E  E  E  E  E     E  E  E  E  E  E  E  E     Q    E  E  E  E  E  E
-------------------------|--------------------------|-------------------------|
-------------------------|--------------0--2--0-----|-------------------------|
--3----3--3--3--3--3--3--|--3--3--3--3-----------3--|--5----5--5--5--5--5--5--|
-------------------------|--------------------------|-------------------------|


  E  E  E  E  E  E  E  E     Q    E  E  E  E  E  E     E  E  E  E  E  E  E  E
--------------------------|-------------------------|--------------------------|
--------------2--3--2-----|--2----2--2--2--2--2--2--|--2--2--2--2--3--5--3--2--|
--5--5--5--5-----------5--|-------------------------|--------------------------|
--------------------------|-------------------------|--------------------------|


  Q    E  E  E  E  E  E     E  E  E  E  E  E  E  E     Q    E  E  E  E  E  E
-------------------------|--------------------------|-------------------------|
--3----3--3--3--3--3--3--|--3--3--3--3--3--2--0--2--|-------------------------|
-------------------------|--------------------------|--3----3--3--3--3--3--3--|
-------------------------|--------------------------|-------------------------|


  E  E  E  E  E  E  E  E     Q    E  E  E  E  E  E     E  E  E  E  E  E  E  E
--------------------------|-------------------------|--------------------------|
--------------0--2--0-----|-------------------------|--------------2--3--2-----|
--3--3--3--3-----------3--|--5----5--5--5--5--5--5--|--5--5--5--5-----------5--|
--------------------------|-------------------------|--------------------------|


  Q    E  E  E  E  E  E     E  E  E  E  E  E  E  E     Q    E  E  E  E  E  E
-------------------------|--------------------------|-------------------------|
--2----2--2--2--2--2--2--|--2--2--2--2--3--5--3--2--|--3----3--3--3--3--3--3--|
-------------------------|--------------------------|-------------------------|
-------------------------|--------------------------|-------------------------|


  E  E  E  E  E  E  E  E     Q    E  E  E  E  E  E     E  E  E  E  E  E  E  E
--------------------------|-------------------------|--------------------------|
--3--3--3--3--3--2--0--2--|-------------------------|--------------0--2--0-----|
--------------------------|--3----3--3--3--3--3--3--|--3--3--3--3-----------3--|
--------------------------|-------------------------|--------------------------|


  Q    E  E  E  E  E  E     E  E  E  E  E  E  E  E     Q    E  E  E  E  E  E
-------------------------|--------------------------|-------------------------|
-------------------------|--------------2--3--2-----|--2----2--2--2--2--2--2--|
--5----5--5--5--5--5--5--|--5--5--5--5-----------5--|-------------------------|
-------------------------|--------------------------|-------------------------|


  E  E  E  E  E  E  E  E     Q    E  E  E  E  E  E     E  E  E  E  E  E  E  E
--------------------------|-------------------------|--------------------------|
--2--2--2--2--3--5--3--2--|--3----3--3--3--3--3--3--|--3--3--3--3--3--2--0--2--|
--------------------------|-------------------------|--------------------------|
--------------------------|-------------------------|--------------------------|


  Q    E  E  E  E  E  E     E  E  E  E  E  E  E  E     Q    Q    E  E  E  E
-------------------------|--------------------------|------------------------|
-------------------------|--------------------------|------------------------|
--3----3--3--3--3--3--3--|--3--3--3--3--3--3--3-----|------------------------|
-------------------------|-----------------------3--|--L----3----3--3--3--3--|


  E  E  E  E  E  E  E  E     Q    Q    E  E  E  E     E  E  E  E  E  E  E  E
--------------------------|------------------------|--------------------------|
--------------------------|------------------------|-----------------------3--|
--------------------------|------------------------|--------------------------|
--3--3--3--3--3--3--3--5--|--L----5----5--5--5--5--|--5--5--5--5--5--5--5-----|


  Q    Q    E  E  E  E     E  E  E  E  E  E  Q       Q    E  E  E  E  E  E
------------------------|-------------------------|-------------------------|
--L----3----3--3--3--3--|--3--3--3--3--3--3--5----|-------------------------|
------------------------|-------------------------|--3----3--3--3--3--3--3--|
------------------------|-------------------------|-------------------------|


  E  E  E  E  E  E  E  E     Q    Q    E  E  E  E     E  E  E  E  E  E  E  E
-----------------------3--|--L----3----3--3--3--3--|--3--3--3--3--3--3--3-----|
--------------------------|------------------------|-----------------------3--|
--3--3--3--3--3--3--3-----|------------------------|--------------------------|
--------------------------|------------------------|--------------------------|


  Q    Q    E  E  E  E     E  E  E  E  E  E  E  E     Q    Q    E  E  E  E
------------------------|--------------------------|------------------------|
--L----3----3--3--3--3--|--3--3--3--3--3--3--3--5--|--L----5----5--5--5--5--|
------------------------|--------------------------|------------------------|
------------------------|--------------------------|------------------------|


  E  E  E  E  E  E  E  E     Q    Q    E  E  E  E     E  E  E  E  E  E  E  E
--------------------------|------------------------|-----------------------3--|
--5--5--5--5--5--5--5-----|------------------------|--------------------------|
-----------------------3--|--L----3----3--3--3--3--|--3--3--3--3--3--3--3-----|
--------------------------|------------------------|--------------------------|


  Q    Q    E  E  E  E     E  E  E  E  E  E  E  E     Q    Q    E  E  E  E
--L----3----3--3--3--3--|--3--3--3--3--3--3--3-----|------------------------|
------------------------|-----------------------3--|--L----3----3--3--3--3--|
------------------------|--------------------------|------------------------|
------------------------|--------------------------|------------------------|


  E  E  E  E  E  E  E  E     Q    Q    E  E  E  E     E  E  E  E  E  E  E  E
--------------------------|------------------------|-----------------------3--|
--3--3--3--3--3--3--3--5--|--L----5----5--5--5--5--|--5--5--5--5--5--5--5-----|
--------------------------|------------------------|--------------------------|
--------------------------|------------------------|--------------------------|


  Q    Q    E  E  E  E     Q    Q    E  E  Q       Q    E  E  E  E  E  E
--L----3-------------3--|--L----3---------------|-------------------------|
------------------------|-----------------------|-------------------------|
------------------------|-----------------------|--3----3--3--3--3--3--3--|
------------------------|-----------------------|-------------------------|


  E  E  E  E  E  E  E  E     Q    E  E  E  E  E  E     E  E  E  E  E  E  E  E
--------------------------|-------------------------|--------------------------|
--------------------------|-------------------------|--------------------------|
--3--3--3--3--3--3--3--3--|--5----5--5--5--5--5--5--|--5--5--5--5--5--5--5--5--|
--------------------------|-------------------------|--------------------------|


  Q    E  E  E  E  E  E     E  E  E  E  E  E  E  E     Q    E  E  E  E  E  E
-------------------------|--------------------------|-------------------------|
--2----2--2--2--2--2--2--|--2--2--2--2--2--2--2--2--|--3----3--3--3--3--3--3--|
-------------------------|--------------------------|-------------------------|
-------------------------|--------------------------|-------------------------|


  E  E  E  E  E  E  E  E     Q    E  E  E  E  E  E     E  E  E  E  E  E  E  E
--------------------------|-------------------------|--------------------------|
--3--3--3--3--3--2--0--2--|-------------------------|--------------------------|
--------------------------|--3----3--3--3--3--3--3--|--3--3--3--3--3--3--3--3--|
--------------------------|-------------------------|--------------------------|


  Q    E  E  E  E  E  E     E  E  E  E  E  E  E  E     Q    E  E  E  E  E  E
-------------------------|--------------------------|-------------------------|
-------------------------|--------------------------|--2----2--2--2--2--2--2--|
--5----5--5--5--5--5--5--|--5--5--5--5--5--5--5--5--|-------------------------|
-------------------------|--------------------------|-------------------------|


  E  E  E  E  E  E  E  E     Q    E  E  E  E  E  E     E  E  E  E  E  E  E  E
--------------------------|-------------------------|--------------------------|
--2--2--2--2--2--2--2--2--|--3----3--3--3--3--3--3--|--3--3--3--3--3--2--0--2--|
--------------------------|-------------------------|--------------------------|
--------------------------|-------------------------|--------------------------|


  Q    E  E  E  E  E  E     E  E  E  E  E  E  E  E     Q    E  E  E  E  E  E
-------------------------|--------------------------|-------------------------|
-------------------------|--------------0--2--0-----|-------------------------|
--3----3--3--3--3--3--3--|--3--3--3--3-----------3--|--5----5--5--5--5--5--5--|
-------------------------|--------------------------|-------------------------|


  E  E  E  E  E  E  E  E     Q    E  E  E  E  E  E     E  E  E  E  E  E  E  E
--------------------------|-------------------------|--------------------------|
--------------2--3--2-----|--2----2--2--2--2--2--2--|--2--2--2--2--3--5--3--2--|
--5--5--5--5-----------5--|-------------------------|--------------------------|
--------------------------|-------------------------|--------------------------|


  Q    E  E  E  E  E  E     E  E  E  E  E  E  E  E     Q    E  E  E  E  E  E
-------------------------|--------------------------|-------------------------|
--3----3--3--3--3--3--3--|--3--3--3--3--3--2--0--2--|-------------------------|
-------------------------|--------------------------|--3----3--3--3--3--3--3--|
-------------------------|--------------------------|-------------------------|


  E  E  E  E  E  E  E  E     Q    E  E  E  E  E  E     E  E  E  E  E  E  E  E
--------------------------|-------------------------|--------------------------|
--------------0--2--0-----|-------------------------|--------------2--3--2-----|
--3--3--3--3-----------3--|--5----5--5--5--5--5--5--|--5--5--5--5-----------5--|
--------------------------|-------------------------|--------------------------|


  Q    E  E  E  E  E  E     E  E  E  E  E  E  E  E     Q    E  E  E  E  E  E
-------------------------|--------------------------|-------------------------|
--2----2--2--2--2--2--2--|--2--2--2--2--3--5--3--2--|--3----3--3--3--3--3--3--|
-------------------------|--------------------------|-------------------------|
-------------------------|--------------------------|-------------------------|


  E  E  E  E  E  E  E  E     Q    E  E  E  E  E  E     E  E  E  E  E  E  E  E
--------------------------|-------------------------|--------------------------|
--3--3--3--3--3--2--0--2--|-------------------------|--------------0--2--0-----|
--------------------------|--3----3--3--3--3--3--3--|--3--3--3--3-----------3--|
--------------------------|-------------------------|--------------------------|


  Q    E  E  E  E  E  E     E  E  E  E  E  E  E  E     Q    E  E  E  E  E  E
-------------------------|--------------------------|-------------------------|
-------------------------|--------------2--3--2-----|--2----2--2--2--2--2--2--|
--5----5--5--5--5--5--5--|--5--5--5--5-----------5--|-------------------------|
-------------------------|--------------------------|-------------------------|


  E  E  E  E  E  E  E  E     Q    E  E  E  E  E  E     E  E  E  E  E  E  E  E
--------------------------|-------------------------|--------------------------|
--2--2--2--2--3--5--3--2--|--3----3--3--3--3--3--3--|--3--3--3--3--3--2--0--2--|
--------------------------|-------------------------|--------------------------|
--------------------------|-------------------------|--------------------------|


  Q    E  E  E  E  E  E     E  E  E  E  E  E  E  E     Q    Q    E  E  E  E
-------------------------|--------------------------|------------------------|
-------------------------|--------------------------|------------------------|
--3----3--3--3--3--3--3--|--3--3--3--3--3--3--3-----|------------------------|
-------------------------|-----------------------3--|--L----3----3--3--3--3--|


  E  E  E  E  E  E  E  E     Q    Q    E  E  E  E     E  E  E  E  E  E  E  E
--------------------------|------------------------|--------------------------|
--------------------------|------------------------|-----------------------3--|
--------------------------|------------------------|--------------------------|
--3--3--3--3--3--3--3--5--|--L----5----5--5--5--5--|--5--5--5--5--5--5--5-----|


  Q    Q    E  E  E  E     E  E  E  E  E  E  Q       Q    E  E  E  E  E  E
------------------------|-------------------------|-------------------------|
--L----3----3--3--3--3--|--3--3--3--3--3--3--5----|-------------------------|
------------------------|-------------------------|--3----3--3--3--3--3--3--|
------------------------|-------------------------|-------------------------|


  E  E  E  E  E  E  E  E     Q    Q    E  E  E  E     E  E  E  E  E  E  E  E
-----------------------3--|--L----3----3--3--3--3--|--3--3--3--3--3--3--3-----|
--------------------------|------------------------|-----------------------3--|
--3--3--3--3--3--3--3-----|------------------------|--------------------------|
--------------------------|------------------------|--------------------------|


  Q    Q    E  E  E  E     E  E  E  E  E  E  E  E     Q    Q    E  E  E  E
------------------------|--------------------------|------------------------|
--L----3----3--3--3--3--|--3--3--3--3--3--3--3--5--|--L----5----5--5--5--5--|
------------------------|--------------------------|------------------------|
------------------------|--------------------------|------------------------|


  E  E  E  E  E  E  E  E     Q    Q    E  E  E  E     E  E  E  E  E  E  E  E
--------------------------|------------------------|-----------------------3--|
--5--5--5--5--5--5--5-----|------------------------|--------------------------|
-----------------------3--|--L----3----3--3--3--3--|--3--3--3--3--3--3--3-----|
--------------------------|------------------------|--------------------------|


  Q    Q    E  E  E  E     E  E  E  E  E  E  E  E     Q    Q    E  E  E  E
--L----3----3--3--3--3--|--3--3--3--3--3--3--3-----|------------------------|
------------------------|-----------------------3--|--L----3----3--3--3--3--|
------------------------|--------------------------|------------------------|
------------------------|--------------------------|------------------------|


  E  E  E  E  E  E  E  E     Q    Q    E  E  E  E     E  E  E  E  E  E  E  E
--------------------------|------------------------|-----------------------3--|
--3--3--3--3--3--3--3--5--|--L----5----5--5--5--5--|--5--5--5--5--5--5--5-----|
--------------------------|------------------------|--------------------------|
--------------------------|------------------------|--------------------------|


  Q    Q    E  E  E  E     Q    Q    E  E  E  E     Q    Q    E  E  E  E     Q    Q    E 
E  Q
--L----3-------------3--|--L----3-------------3--|--L----3-------------3--|--L----3---------------|
------------------------|------------------------|------------------------|-----------------------|
------------------------|------------------------|------------------------|-----------------------|
------------------------|------------------------|------------------------|-----------------------|


  E  Q    E  E  Q    E     E  Q    E  E  Q    E     E  Q    E  E  Q    E     E  Q    E  E Q    E
------------------------|------------------------|------------------------|------------------------|
--3--3----3--3--3----5--|--L--5----5--5--5----5--|------------------------|------------------------|
------------------------|------------------------|--3--3----3--3--3----3--|--0--0----0--0--0----0--|
------------------------|------------------------|------------------------|------------------------|


  E  Q    E  E  Q    E     E  Q    E  E  Q    E     E  Q    E  E  Q    E     E  Q    E  E Q    E
------------------------|------------------------|------------------------|------------------------|
--3--3----3--3--3----5--|--L--5----5--5--5----5--|------------------------|------------------------|
------------------------|------------------------|--3--3----3--3--3----3--|--0--0----0--0--0----0--|
------------------------|------------------------|------------------------|------------------------|


  E  Q    E  E  Q    E     E  Q    E  E  Q    E     E  Q    E  E  Q    E     E  Q    E  E Q    E
------------------------|------------------------|------------------------|------------------------|
--3--3----3--3--3----5--|--L--5----5--5--5----5--|------------------------|------------------------|
------------------------|------------------------|--3--3----3--3--3----3--|--0--0----0--0--0----0--|
------------------------|------------------------|------------------------|------------------------|


  E  Q    E  E  Q    E     E  Q    E  E  Q    E     W                   W
------------------------|------------------------|-------------------|-------------------|
--3--3----3--3--3----5--|--L--5----5--5--5----5--|--3----------------|--L----------------|
------------------------|------------------------|-------------------|-------------------|
------------------------|------------------------|-------------------|-------------------|


  W                   W
-------------------|-------------------||
--L----------------|--L----------------||
-------------------|-------------------||
-------------------|-------------------||


Duration Legend
---------------
W - whole
H - half
Q - quarter
E - 8th
S - 16th
T - 32nd
X - 64th
. - note dotted
|-n-|  - n-tuplets


Tablature Legend
----------------
L - tied note
x - dead note
g - grace note
(n) - ghost note
> - accentuded note
NH - natural harmonic
AH - artificial harmonic
TH - tapped harmonic
SH - semi harmonic
PH - pitch harmonic
h - hammer on
p - pull off
b - bend
br - bendRelease
pb - preBend
pbr - preBendRelease
brb - bendReleaseBend
\n/ - tremolo bar dip
\n - tremolo bar dive
-/n - tremolo bar Release up
/n\ - tremolo bar inverted dip
/n - tremolo bar return
-\n - tremolo bar Release down
S - shift slide
s - legato slide
/ -  slide into from below or out of upwards
\ -  slide into from above or out of downwards
~ - vibrato
W - wide vibrato
tr - trill
TP - tremolo picking
T - tapping
S - slap
P - pop
< - fade in
^ - brush up
v - brush down

            
            
Suggest correction
Creating personal tab
Creating personal tab
You can edit any tab online and save it as your Personal.

You can edit, replace or remove any tab part or add personal notes – all changes will be seen only by you.

Personal tabs can be accessed anytime from any device, even offline.
Learn more »
Give kudos to tab author, rate the tab!
1 2 3 4 5
comments
print report bad tab
guest
You may want to rate the tab now too:
select rating
Wanna post a correction for this tab? Suggest correction