Oops, an error
Loading. Please wait.

Violins tab

version 4
version 4

Whole song

Interactive

3,276 views 1 this week
no commentswrite comment
1 2 3 4 5
1 last vote to show rating
add to favorites
×
Save as Personal and add changes to this tab that will be seen only by you. Learn more ›
×
You can save this tab as Personal to edit and correct it or add notes. All changes will be seen only by you. Learn more »
launch autoscroll
font size
0
reset
how to read this tab
guitar tuner
edit
Autoscroll
slow
fast
+/-
esc
set tempo
stop
Author
Difficulty
Artist: Lagwagon
Song: Violins

I haven't checked if this songs up already, but whatever I tabbed it and it sounds great.
So here's my 3rd tab for those of you keeping track. just to let you know, if my tabs were
dates, and we were going out, we'd be having sex tonight!
aren't you a lucky one!
just some rules:
no condoms, I will not call you "daddy", no spanking, and DO NOT look me in the eye during!

---intro
   C                 G                 E^                F^
e|-------------------------------------------------------------------------------------|
B|-------------------------------------------------------------------------------------|
G|-5-55-555-5-55-555-------------------9-99-999-9-99-999-10-1010-101010-10-1010-101010-|
D|-5-55-555-5-55-555-5-55-555-5-55-555-9-99-999-9-99-999-10-1010-101010-10-1010-101010-|
A|-3-33-333-3-33-333-5-55-555-5-55-555-7-77-777-7-77-777-8--8-8--8-8-8--8--8-8--8-8-8--|
E|-------------------3-33-333-3-33-333-------------------------------------------------|


---verse
   C                G                E^               F^
e|----------------------------------------------------------------------|
B|----------------------------------------------------------------------|
G|-5---------------------------------9----------------10----------------| x2
D|-5----------------5----------------9----------------10----------------|
A|-3-33333333333333-5----------------7-77777777777777-8--88888888888888-|
E|------------------3-33333333333333------------------------------------|
     [pm           ]  [pm           ]  [pm           ]   [pm           ]

   C                G                E                 F
e|----------------------------------------------------------------------|
B|----------------------------------------------------------------------|
G|-5--------------------------------------------------------------------|
D|-5----------------5----------------2-----------------3----------------|
A|-3-33333333333333-5----------------2-----------------3----------------|
E|------------------3-33333333333333-0-00000000000000--1-11111111111111-|
     [pm           ]  [pm           ]  [pm          ]   [pm           ]

I am just another fool and I have to keep telling myself that
I am just a hypocrite and I have to keep calling you one
and I forgot to bite my tongue
as my assumption is the mother of all mistakes

---pre chorus
   C                G                A                F^                    G^
e|------------------------------------------------------------------------------------|
B|------------------------------------------------------------------------------------|
G|-5-5555555-555555-----------------------------------10-1010101010101010101012121212-|
D|-5-5555555-555555-5-5555555-555555-7-7777777-777777-10-1010101010101010101012121212-|
A|-3-3333333-333333-5-5555555-555555-7-7777777-777777-8--8-8-8-8-8-8-8-8-8-8-10101010-|
E|------------------3-3333333-333333-5-5555555-555555---------------------------------|

so I assume the role. open my mouth and clumsy words escape

---chorus
   C                               A#
e|-----------------------------------------------------------------|
B|---------------------------------11-1111111111111111111111111111-|
G|---------------------------------10-1010101010101010101010101010-|
D|-10-1010101010101010101010101010-8--8-8-8-8-8-8-8-8-8-8-8-8-8-8--|
A|-10-1010101010101010101010101010---------------------------------|
E|-8--8-8-8-8-8-8-8-8-8-8-8-8-8-8----------------------------------|
   F^                              G^
e|-----------------------------------------------------------------|
B|-----------------------------------------------------------------|
G|-10-1010101010101010101010101010-12-1212121212121212121212121212-|
D|-10-1010101010101010101010101010-12-1212121212121212121212121212-|
A|-8--8-8-8-8-8-8-8-8-8-8-8-8-8-8--10-1010101010101010101010101010-|
E|-----------------------------------------------------------------|

so why you wanna be there? when you can be here? you are slipping away

(if you cant       G|-15-|
 bust that A#      D|-15-|
 do dis one)===>   A|-13-|


---verse
C            G                            E^                F^         C
I awake with you're replacement, a bottle in my grasp in an unfamiliar place
                      G                       E^                      F^
'cause you put me out, the butt of a sick joke into this ashtray life
                   C            G                      E
as you come and go. 'cause I forgot to service you and we broke down
              F
and you can't live with my mistake

---pre chorus
C         G                   A               F^                 G^
   but I assume false grace, open my arms and grasp at something true

---chorus x2
C              A#                   F^                G^
  how are you?   how have you been?  girl,I miss you.  wanna see you again.
C            A#                F^                     G^
  so why you,  wanna be there?  when you can be here?  your love's slipping
away

e|------------|
B|-11--11--XX-|
G|-10--10--XX-| x2
D|-8---8---XX-|
A|------------|
E|------------|

---solo
e|--------------------------------|------------------------------------|
B|--------------------------------|------------------------------------|
G|----------9------------9---10---|-9---10---12-10-9--10---9-----------|
D|-10---12-----12-10-12-----------|--------------------------12---10-9-|
A|--------------------------------|------------------------------------|
E|--------------------------------|------------------------------------|

e|--------------------------------|------------------------------------|
B|--------------------------------|-----------------------------13-----|
G|----------9------------9---10---|-9---10---12-10-9--10--12--12--1210-|
D|-10---12-----12-10-12-----------|----------------------------b-------|
A|--------------------------------|------------------------------------|
E|--------------------------------|------------------------------------|


(G|-9~~  rung out through verse)

---verse
c           G            E^              F^
I bring the worst in you  and you try to let me know.
C                  G              E^       F^
 you bring out the worst in me. anxiety, anxiety
C           G           E               F
 I'm trying  to let you go. you say I'm giving you the creeps

---pre chorus
C      G                A                F^             G^
 so I assume the role, open my claws and grasp for your heart

---chorus
C             A#                   F^                G^
 how are you?   how have you been?  girl,I miss you.  wanna see you again.
C         A#                     F^              G^
 into you   like a mortal stake;  so vindictive.   your love's slipping away
   A#
e|------------|
B|-11--11--XX-|
G|-10--10--XX-| x4
D|-8---8---XX-|
A|------------|
E|------------|

---bridge/outro
   F^                  G^                  C                   A
e|------------------------------------------------------------------------|
B|------------------------------------------------------------------------|
G|-10-10--10-10-10--10-12-12--12-12-12--12--------------------------------| x3.5
D|-10-10--10-10-10--10-12-12--12-12-12--12-10-10--10-10-10--10-7-7--7-7-7-|
A|-8--8---8--8--8---8--10-10--10-10-10--10-10-10--10-10-10--10-7-7--7-7-7-|
E|-----------------------------------------8--8---8--8--8---8--5-5--5-5-5-|

violins. into this ashtray life. violins. the butt of your sick joke.violins
I'm trying hard to let you go. violins

   C
D|-10~
A|-10~
E|-8~


That's about it. was it as good for you as it was for me? WHAT?too early? I thought I 
did pretty good..
I don't think I came that early. You think it might be stress? Yeah, I heard that could
be a cause for premature ejaculation....
Well...want me to finish you off with my hand?

DAMN YOU, PREMATURE EJACULATION!!!!!!!!!!
Suggest correction
Creating personal tab
Creating personal tab
You can edit any tab online and save it as your Personal.

You can edit, replace or remove any tab part or add personal notes – all changes will be seen only by you.

Personal tabs can be accessed anytime from any device, even offline.
Learn more »
Give kudos to tab author, rate the tab!
1 2 3 4 5
comments
print report bad tab
guest
You may want to rate the tab now too:
select rating
Wanna post a correction for this tab? Suggest correction