Oops, an error
Loading. Please wait.

Whipping Boy Bass Tab

version 1
version 1

Whole song

Interactive

440 views 1 this week
no commentswrite comment
1 2 3 4 5
2 more votes to show rating
add to favorites
launch autoscroll
font size
0
reset
guitar tuner
×
Best way to learn
"Whipping Boy"
Autoscroll
slow
fast
+/-
esc
set tempo
stop
-----------------------------------------------------------------------
                  WHIPING BOY    LAGWAGON   
-----------------------------------------------------------------------

> MEANS STRUM

INTRO
G]-----------------------------------------------------]
D]---0-2-4-------------0-2-4-----4-5-----2-4---0-2-4---]
A]---------0-5-5-4-0---------5-5-----0-0---------------]
E]-3-----------------3-----------------------3-------0-]

VERSE
G]---------------------------------------------------------------]
D]------------------------------------------------0-2--------2---]
A]-2-2-4-4-5-5>-2>-0>-2-2-4-4-5-5>-2>-0>-------0>-----5>-2-2---5-]
E]---------------------------------------2>-3>-------------------]

PRE-CHORUS
G]-----------------|-------------]
D]-----------------|-------------]
A]----------2>-----|-5>----------]
E]-3>-5>-0>----3-5-|----2>-3>-5>-]

CHORUS
G]-----------------]
D]-----------------]
A]-5>----2>--------]
E]----2>----3>-5-5-]

VERSE
PRE-CHORUS(to dotted line)

BRIDGE
G]----------------------0---------------------------------]
D]------------------------4-2-0---0-2-4-------------------]
A]-5>-3>-2>-0>------------------4-------5>-7>-2>-0>-------]
E]-------------3>-0>-2>-----------------------------3>-5>-]

PRE-CHORUS
CHORUS

OUTRO
G]------------------------------------------]
D]---0-2-4-------------0-2-4----------------]
A]---------0-5-4-4-0-2-----------5-----0>---]
E]-3-------------------------2-2---2-3>---3-]
Suggest correction
Give kudos to tab author, rate the tab!
1 2 3 4 5
comments
print report bad tab
guest
You may want to rate the tab now too:
select rating
Wanna post a correction for this tab? Suggest correction