Oops, an error
Loading. Please wait.

Keine Wie Du tab

version 1
version 1

Whole song

Interactive

3,112 views 1 this week
2 commentsread comments
1 2 3 4 5
3 more votes to show rating
add to favorites
×
Save as Personal and add changes to this tab that will be seen only by you. Learn more ›
×
You can save this tab as Personal to edit and correct it or add notes. All changes will be seen only by you. Learn more »
launch autoscroll
font size
0
reset
how to read this tab
guitar tuner
edit
Autoscroll
slow
fast
+/-
esc
set tempo
stop
Author
You can play this riff through the whole song. It is exactly like on the piano with one 
in bar 2 on the 6th beat, I put a D instead of a G [open D string instead of open G].
better like changing the note on the G sting three times.

Hope you like it! Any questions? Mail to toeffifee@yahoo.com.

e--------------0----|----------------------|---------------|----------------|
B------0-----3-----|-------3--0----------|----3-----3-0-|-----0----------|
G----0-----2-------|-2---2--------2--0--|--0---3-------|---0---2------0-|
D-------------------|---0--------0--------|--------0-----|-0-------0--4---|
A--------3----------|----------2----------|-3-------------|----------------|
D-2--------------0-|----------------------|------0-----2-|-------0--------|

            
            
Suggest correction
Creating personal tab
Creating personal tab
You can edit any tab online and save it as your Personal.

You can edit, replace or remove any tab part or add personal notes – all changes will be seen only by you.

Personal tabs can be accessed anytime from any device, even offline.
Learn more »
Give kudos to tab author, rate the tab!
1 2 3 4 5
comments
print report bad tab
2 comments total.
0 reply
toeffifee 487 Aug 03, 2007 01:17 AM

Slight correction:

e--------------0---|--------------------|--------------|----------------|
B------0-----3-----|-------3--0---------|----3-----3-0-|-----0----------|
G----0-----2-------|-2---2--------2--0--|--0---3-------|---0---2------0-|
D------------------|---0--------0-------|--------0-----|-0-------0--4---|
A--------3---------|----------2---------|-3------------|----------------|
D-2--------------0-|--------------------|------0-----2-|-------0--------|

0 reply
toeffifee 487 Aug 19, 2011 02:57 PM

e--------------0---|---------------------|----------------|-----------------|
B------0-----3-----|-------3--0---------|----3-----3-0--|-----0----------|
G----0-----2-------|-2---2--------2--0-|--0---3--------|---0---2------0-|
D------------------|---0--------0--------|--------0------|-0-------0--4---|
A--------3---------|----------2----------|-3-------------|-----------------|
D-2--------------0-|---------------------|------0-----2--|-------0--------|

guest
You may want to rate the tab now too:
select rating
Wanna post a correction for this tab? Suggest correction