Oops, an error
Loading. Please wait.

11Th Hour tab

version 5
1,413 views 1 this week
1 commentread comment
1 2 3 4 5
2 more votes to show rating
add to favorites
×
Save as Personal and add changes to this tab that will be seen only by you. Learn more ›
×
You can save this tab as Personal to edit and correct it or add notes. All changes will be seen only by you. Learn more »
launch autoscroll
font size
0
reset
how to read this tab
guitar tuner
backing track
0:00
0:00
edit
Autoscroll
slow
fast
+/-
esc
set tempo
stop
11th hour
lamb of god

hey guys i have seen alot of versions of this song and thought i would add the one my 
tought me. It wont be to detailed with time signatures lyrics etc but you can figure out 
it plays in with the song.

Also this is only one of the riffs in the song, not the whole thing!!!

Tabbed by: mike
Email:

Tuning: drop D

start of the riff begins at around 0:51-0:52 in that area

e|---------------------------------------------------------------------------|
B|---------6--------6-------6--------10---------10---------------------------|
G|---------9--------9-------9--------10---------10------13p12---13b15r13-----|
D|------------------------------------------------------------14---------13--|
A|---------------------------------------------------------------------------|
E|-000000----000000----000----888888-----888888------------------------------|
 the picking here is down,triplet,down,down,down


e|--------------------------------------------------------------------------|
B|-------6--------6-----6---------10--------10------------------------------|
G|-------9--------9-----9---------10--------10------------------------------|
D|--------------------------------------------------------------------------|
A|------------------------------------------------12p10----10p8-------------|
E|000000---000000---000----888888----888888-------------12------------------|the picking 
the same here....

play this riff twice!!!

here starts at 1:18-1:19ish
e|--------------------------------------------------------------------------|
B|--------------------------------------------------------------------------|
G|-------9s10-10-10-10-10---------9s10-10-10-10-10--------9s10-10-10-10-10--|
D|--------------------------------------------------------------------------|
A|-------7s8--8--8--8--8----------7s8--8--8--8--8---------7s8--8--8--8--8---|
E|000000------------------000000-------------------888888-------------------|
picking again is the same

not sure how many times he picks the octaves, I pick them 4 times, up down up down just 
it stays with the beat.  Whatever works for you though!!


e|--------------------------------------------------------------------------|
B|--------------------------------------------------------------------------|
G|--------9s10-10-10s9------------------------------------------------------|
D|--------------------------------------------------------------------------|
A|--------7s8--8--8s7-------------------------------------------------------|
E|555555--------------------------------------------------------------------|
play this twice, this part and the previous bar are continous(spelled that wrong sorry) 
play them BOTH as if they were on the SAME BAR

this part starts at 1:34
e|--------------------------------------------------------------------------|
B|--------------------------------------------------------------------------|
G|-------9s10-10-10-10-10------9s10-10-10-10-10--------10s12-12-12-12-12----|
D|--------------------------------------------------------------------------|
A|-------7s8--8--8--8--8-------7s8--8--8--8--8---------8s10--10-10-10-10----|
E|000000-----------------000000------------------888888---------------------|


now in the actual song, he plays the octaves an octave higher, which i haven't figured 
yet, so it is right guys just different octave.


e|--------------------------------------------------------------------------|
B|--------------------------------------------------------------------------|
G|------9s10-10-10s9--------------------------------------------------------|
D|--------------------------------------------------------------------------|
A|------7s8--8--8s7---------------------------------------------------------|
E|555555--------------------------------------------------------------------|
again play twice with previous bar, this bar is continued.

enjoy guys.  Thx to my cousin!!!


| /  slide up
| \  slide down
| h  hammer-on
| p  pull-off
| ~  vibrato
| +  harmonic
| x  Mute note
==========================================================================

            
            
Suggest correction
Creating personal tab
Creating personal tab
You can edit any tab online and save it as your Personal.

You can edit, replace or remove any tab part or add personal notes – all changes will be seen only by you.

Personal tabs can be accessed anytime from any device, even offline.
Learn more »
Give kudos to tab author, rate the tab!
1 2 3 4 5
comments
print report bad tab
1 comment total.
0 reply
rendyramadhan 10 Aug 12, 2013 03:01 PM

THAKS DUDE !!!

guest
You may want to rate the tab now too:
select rating
Wanna post a correction for this tab? Suggest correction