Oops, an error
Loading. Please wait.

Ashes Of The Wake Bass Tab

version 1
version 1
3,886 views 3 this week
10 commentsread comments
1 2 3 4 5
please rate
add to favorites
launch autoscroll
font size
0
reset
guitar tuner
Autoscroll
slow
fast
+/-
esc
set tempo
stop
Help us to improve Ultimate-Guitar.com Take our survey!
×
Author
Difficulty
advanced
Lamb of God - Ashes Of The Wake

Drop D Tuning

Riff 1
       (  3 ) (  3  )  (  3  )  ( 3  )   (  3  ) (  3 ) ( 3  ) ( 3 )
       ss e e e  e  e  e  e  e  e ss e   e  e  e e  e e e ss e q   e
|--||----------------------------------|------------------------------|
|4-||o---------------------------------|------------------------------|
|4-||o---------------------------------|------------------------------|
|--||--00-0-0-11h12-14-15p14-12-0-00-0-|-13-10-9-12-8-7-0-00-0-13--13-|

  (  3 ) (  3  )  (  3  )  ( 3  )   (  3  ) (  3 ) (  3 ) (  3  )
  ss e e e  e  e  e  e  e  e ss e   e  e  e e  e e e  e e s s e e
|---------------------------------|----------------10-9-6-6h7p6---|
|---------------------------------|-----------------------------8-|
|---------------------------------|-------------------------------|
|-00-0-0-11h12-14-15p14-12-0-00-0-|-13-10-9-12-8-7----------------|

  (  3 ) (  3  )  (  3  )  ( 3  )   (  3  ) (  3 ) ( 3  ) ( 3 )
  ss e e e  e  e  e  e  e  e ss e   e  e  e e  e e e ss e q   e
|---------------------------------|------------------------------|
|---------------------------------|------------------------------|
|---------------------------------|------------------------------|
|-00-0-0-11h12-14-15p14-12-0-00-0-|-13-10-9-12-8-7-0-00-0-13--13-|
                                  _____________________________
                                  |1.                        ||
  (  3 ) (  3  )  (  3  )  ( 3  )   ( 3 ) ( 3 ) ( 3  ) (3 )
  ss e e e  e  e  e  e  e  e ss e   e e e e e e e ss e q  e
|---------------------------------|--------------------------||
|---------------------------------|-------------------------o||
|---------------------------------|-------------------------o||
|-00-0-0-11h12-14-15p14-12-0-00-0-|-8-5-4-7-4-3-0-00-0-1--1--||
________________________________
|2.                            |
  (  3 ) (  3  ) ( 3 ) (  3  )
  e  e e s s e e e e e s s e e
|-10-9-6-6h7p6-----------------|
|--------------8-5-4-----------|
|--------------------6---------|
|----------------------3h4p3-1-|

Riff 2 x2
  (  3  ) ( 3 ) ( 3  ) ( 3 )   ( 3  ) ( 3 ) ( 3 ) ( 3 )   (  3  ) ( 3 ) ( 3  ) ( 3 )
  s s e e e e e e ss e e e e   e ss e e e e e e e e e e   s s e e e e e e ss e e e e
|----------------------------|--------------------------|----------------------------|
|----------------------------|--------------------------|----------------------------|
|-5h6p5----------------------|--------------------8-7-4-|-5h6p5----------------------|
|-------0-0-0-0-0-00-0-0-0-0-|-0-00-0-0-0-0-0-8-7-------|-------0-0-0-0-0-00-0-0-0-0-|

  (3)  (3 ) ( 3 ) (3 )   (  3  ) ( 3 ) ( 3  ) ( 3 )   ( 3  ) ( 3 ) ( 3 ) ( 3 )
  e q  q  e e e e q  e   s s e e e e e e ss e e e e   e ss e e e e e e e e e e
|----------------------|----------------------------|--------------------------|
|----------------------|----------------------------|--------------------------|
|----------------------|-5h6p5----------------------|--------------------8-7-4-|
|-0-6--6--0-0-3-0-3--0-|-------0-0-0-0-0-00-0-0-0-0-|-0-00-0-0-0-0-0-8-7-------|

  (  3  ) ( 3 ) ( 3  ) ( 3 )   ( 3 ) (3 ) ( 3 ) (3 )
  s s e e e e e e ss e e e e   e e e q  e e e e q  e
|----------------------------|-----------------------|
|----------------------------|-----------------------|
|-5h6p5----------------------|-----------------------|
|-------0-0-0-0-0-00-0-0-0-0-|-0-2-0-2--0-0-3-0-3--0-|

Fill 1 x1
  ssssssssssss q      q  q
|------------------|--------|
|------------------|2-------|
|------------------|4-------|
|-666655553333-6---|--3--5--|

Riff 3 x2
   e ssssss e ssssss   e ssssss e e e e   e q  e e q  e   e q  e e q  e
|--------------------|------------------|---------------|---------------|
|4-------------------|------------------|---------------|---------------|
|4-------------------|------------------|---------------|---------------|
|--0-000000-0-000000-|-0-000000-0-1p0-1-|-3-7--7-0-7--7-|-6-6--6-3-3--3-|

Fill 2A x1
   e e E e
|----------|
|2---------|
|4---------|
|--0-1---1-|

Riff 3 x2

Fill 2B x1
  W         H  E e q
|---------|------------|
|---------|------------|
|---------|--------9\--|
|---------|------0-----|

Riff 4 x4
  sss e se h       sss e se h       sss e se h       sss e see. e. e
|----------------|----------------|----------------|-----------------|
|----------------|----------------|----------------|-----------------|
|----------------|----------------|----------------|---------1-------|
|-222-2-22/8-----|-222-2-22/8-----|-333-3-33/9-----|-000-0-00---1--4-|

Riff 5A x1
  ssse  se  sss s s s s s   ssse  se  e e e e   ssse  se  sss s s s s s   ssss ss e Q  q
|-------------------------|-------------------|-------------------------|-------------------|
|-------------------------|-------------------|-------------------------|-------------------|
|-------------5h7h8p7p5/4-|-------------5-4-6-|-------------5h7h8p7p5/4-|-------------------|
|-0001^-01^-00------------|-0001^-01^-0-------|-0001^-01^-00------------|-0001p00-6----10\--|

Riff 5B x3
  ssse  se  sss s s s s s   ssse  se  e e e e   ssse  se  sss s s s s s   ssss ss e ssss ss e
|-------------------------|-------------------|-------------------------|---------------------|
|-------------------------|-------------------|-------------------------|---------------------|
|-------------5h7h8p7p5/4-|-------------5-4-6-|-------------5h7h8p7p5/4-|---------------------|
|-0001^-01^-00------------|-0001^-01^-0-------|-0001^-01^-00------------|-0001p00-6-0001p00-3-|

Riff 4 x2

Riff 5B x4

Fill 3 x1
  (  3  )    (  3  )
  q  q  q    q  q  q
|---------------------|
|---------------------|
|---------------------|
|-6--3--5--5h7--6--3--|

FREE TIME

Riff 6 x1                           (  3  )  (  3    )
  w             w         x8  h     e  e  e  e  e    e
|----------||-------------||-----------------------------|
|----------||o-----------o||-----------12----------------|
|----------||o-----------o||-----------------------------|
|-0--------||--(0)--------||-(0)----13----13-12-10^-(10)-|

END FREE TIME

Riff 7 x2
  ( 3  )    ( 3) ( 3  )   ( 3 ) ( 3  ) ( 3  )  (  3  )    ( 3  )    ( 3) ( 3  )
  e ss e Q  Q  e e ss e   e e e e ss e e e  e  e  e  e    e ss e Q  Q  e e ss e
|-----------------------|-------------------------------|-----------------------|
|-----------------------|-------------------12----------|-----------------------|
|-----------------------|-------------------------------|-----------------------|
|-0-00-0-------0-0-00-0-|-0-0-0-0-00-0-0-13----13-12p10-|-0-00-0-------0-0-00-0-|

  ( 3 ) ( 3  ) (  3  )  (  3    )     ( 3  )    ( 3) ( 3  )   ( 3 ) ( 3  ) ( 3  )  (  3  )
  e e e e ss e e  e  e  e  e    e     e ss e Q  Q  e e ss e   e e e e ss e e e  e  e  e  e
|-----------------------------------|-----------------------|-------------------------------|
|-----------------12----------------|-----------------------|-------------------12----------|
|-----------------------------------|-----------------------|-------------------------------|
|-0-0-0-0-00-0-13----13-12-10^-(10)-|-0-00-0-------0-0-00-0-|-0-0-0-0-00-0-0-13----13-12p10-|

  ( 3  )    ( 3) ( 3  )   (3)   ( 3 ) (3)   ( 3 )
  e ss e Q  Q  e e ss e   e q   q   e e q   e   q
|-----------------------|-----------------------------|
|-----------------------|-----------------------------|
|-----------------------|-----------------------------|
|-0-00-0-------0-0-00-0-|-0-13--13--0-0-10--10-(10)\--|

Fill 4 x1
   ( 3  ) ( 3 )
   e ss e e e e
|---------------|
|2--------------|
|4--------------|
|--0-00-0-8-7-4-|

Riff 8A x2
      ( 3) (  3  )    (3)  ( 3) (  3  )       ( 3) (  3  )    (3)  ( 3) ( 3  ) ( 3 )
   q  q  e q  q  q    e q  q  e q  q  q    q  q  e q  q  q    e q  q  e e ss e e e e
|-------------------|--------------------|------------------|------------------------|
|4------------------|--------------------|------------------|------------------------|
|4------------------|--------------------|------------------|------------------------|
|--0--0--0-0--0--0--|-0-0--0--0-0--0--0--|-6--6--6-6--6--6--|-0-3--3--3-1-11-1-8-7-4-|

Riff 8B x2
     ( 3) (  3  )    (3)  ( 3) (  3  )       ( 3) (  3  )    (3)  ( 3) ( 3  ) ( 3 )
  q  q  e q  q  q    e q  q  e q  q  q    q  q  e q  q  q    e q  q  e e ss e e e e
|------------------|--------------------|------------------|------------------------|
|------------------|--------------------|------------------|------------------------|
|------------------|--------------------|------------------|------------------------|
|-0--0--0-0--0--0--|-0-0--0--0-6--6--6--|-3--3--3-3--3--3--|-0-1--1--1-0-00-0-8-7-4-|

Riff 8A x2

Riff 8B x2

Riff 8A x2

Riff 8B x2

Fill 5 x1
  (3)  ( 3) ( 3  ) ( 3 )   (3)  ( 3) ( 3  ) (  3 )   (3)  ( 3) ( 3  ) ( 3 )
  e q  q  e e ss e e e e   e q  q  e e ss e e  e e   e q  q  e e ss e e e e
|------------------------|-------------------------|------------------------|
|------------------------|-------------------------|------------------------|
|------------------------|-------------------------|------------------------|
|-0-1--1--1-0-00-0-8-7-4-|-0-1--1--1-0-00-0-10-8-7-|-0-1--1--1-0-00-0-8-7-4-|

  (  3 )   ( 3 ) ( 3 )   ( 3 )
  e  e e   e e e e e e   e e e   e E Q  h
|-10-9-6-6h7-6-----------------|-------------|
|--------------8-5-4-----------|-------------|
|--------------------6---------|-------------|
|----------------------3h4p3\1-|-0------0----|

Hold that open D and fade
Suggest correction
Give kudos to tab author, rate the tab!
1 2 3 4 5
comments
print report bad tab
10 comments total. Showing first comments.
-1 reply
supersolus666 10 wrote on July 26 2006, 07:58 pm

it sounds pretty decent when you play it but its not right i have the official tab for it and it uses all of the top 3 or 4 strings in the intro

-1 reply
Satan Man 1,286 wrote on February 3 2007, 07:57 am

most of LOG's stuff is on a 5 string in standard tuning

-1 reply
Satan Man 1,286 wrote on April 1 2007, 09:14 am

sorry bout that last 1. it aint

guest
You may want to rate the tab now too:
select rating
Please do not post tabs as comments. Select "correction" instead!