Oops, an error
Loading. Please wait.

Ashes Of The Wake Tab

version 1
version 1
102,663 views 39 this week
34 commentsread comments
1 2 3 4 5
x 28
add to favorites
×
Save as Personal and add changes to this tab that will be seen only by you. Learn more ›
×
You can save this tab as Personal to edit and correct it or add notes. All changes will be seen only by you. Learn more »
save as personal
new!
launch autoscroll
font size
0
reset
how to read this tab
guitar tuner
backing track
0:00
0:00
Autoscroll
slow
fast
+/-
esc
set tempo
stop
Band- Lamb Of God
Song- Ashes Of The Wake

e|----------------------------------------|-----------------------------------------|
B|----------------------------------------|-----------------------------------------|
G|----------------------------------------|-----------------------------------------|
D|----------------------------------------|---------------------------------8----8--|
A|------------4--5--7--8--7--5------------|---------------------------------6----6--|
E|--0-0-0--0--------------------0--0-0-0--|--13--10--9--12--8--7--0--0-0-0----------|

e|----------------------------------------|-----------------------------------------------|
B|----------------------------------------|-----------------------------------------------|
G|----------------------------------------|-----------------------10--9-------------------|
D|----------------------------------------|------------------------------11--11-12-11--8--|
A|------------4--5--7--8--7--5------------|-----------------------------------------------|
E|--0-0-0--0--------------------0--0-0-0--|--13--10--9--12--8--7--------------------------|

e|----------------------------------------|-----------------------------------------|
B|----------------------------------------|-----------------------------------------|
G|----------------------------------------|-----------------------------------------|
D|----------------------------------------|---------------------------------8----8--|
A|------------4--5--7--8--7--5------------|---------------------------------6----6--|
E|--0-0-0--0--------------------0--0-0-0--|--13--10--9--12--8--7--0--0-0-0----------|

e|----------------------------------------|--------------------------------------|
B|----------------------------------------|--------------------------------------|
G|----------------------------------------|--------------------------------------|
D|----------------------------------------|--------------------------------------|
A|------------4--5--7--8--7--5------------|------------------------------1----1--|
E|--0-0-0--0--------------------0--0-0-0--|--8--5--4--7--4--3--0--0-0-0--1----1--|

e|----------------------------------------|-----------------------------------------------|
B|----------------------------------------|-----------------------------------------------|
G|----------------------------------------|-----------------------10--9-------------------|
D|----------------------------------------|------------------------------11--11-12-11--8--|
A|------------4--5--7--8--7--5------------|-----------------------------------------------|
E|--0-0-0--0--------------------0--0-0-0--|--13--10--9--12--8--7--------------------------|

e|----------------------------------------|-----------------------------------------|
B|----------------------------------------|-----------------------------------------|
G|----------------------------------------|-----------------------------------------|
D|----------------------------------------|---------------------------------8----8--|
A|------------4--5--7--8--7--5------------|---------------------------------6----6--|
E|--0-0-0--0--------------------0--0-0-0--|--13--10--9--12--8--7--0--0-0-0----------|

e|----------------------------------------|----------------------------------------------|
B|----------------------------------------|----------------------------------------------|
G|----------------------------------------|--10--9---------------------------------------|
D|----------------------------------------|---------11--11-12-11--8----------------------|
A|------------4--5--7--8--7--5------------|--------------------------10--9--6------------|
E|--0-0-0--0--------------------0--0-0-0--|------------------------------------4-5-4--1--|

e|----------------------------------------|---------------------------------------|
B|----------------------------------------|---------------------------------------|
G|----------------------------------------|---------------------------------------|
D|----------------------------------------|---------------------------------------|
A|--5-6-5---------------------------------|------------------------------8--7--4--|
E|---------0--0--0--0--0--0-0-0--0--0--0--|--0--0-0-0--0--0--0--0--8--7-----------|

e|----------------------------------------|----------------------------------|
B|----------------------------------------|----------------------------------|
G|----------------------------------------|----------------------------------|
D|----------------------------------------|----------------------------------|
A|--5-6-5---------------------------------|-----6----6----------3----3-------|
E|---------0--0--0--0--0--0-0-0--0--0--0--|--0--6----6----0--0--3----3----0--|

e|----------------------------------------|---------------------------------------|
B|----------------------------------------|---------------------------------------|
G|----------------------------------------|---------------------------------------|
D|----------------------------------------|---------------------------------------|
A|--5-6-5---------------------------------|------------------------------8--7--4--|
E|---------0--0--0--0--0--0-0-0--0--0--0--|--0--0-0-0--0--0--0--0--8--7-----------|

e|----------------------------------------|----------------------------------|
B|----------------------------------------|----------------------------------|
G|----------------------------------------|----------------------------------|
D|----------------------------------------|----------------------------------|
A|--5-6-5---------------------------------|-----3----3----------4----4-------|
E|---------0--0--0--0--0--0-0-0--0--0--0--|--0--3----3----0--0--4----4----0--|

e|----------------------------------------|---------------------------------------|
B|----------------------------------------|---------------------------------------|
G|----------------------------------------|---------------------------------------|
D|----------------------------------------|---------------------------------------|
A|--5-6-5---------------------------------|------------------------------8--7--4--|
E|---------0--0--0--0--0--0-0-0--0--0--0--|--0--0-0-0--0--0--0--0--8--7-----------|

e|----------------------------------------|----------------------------------|
B|----------------------------------------|----------------------------------|
G|----------------------------------------|----------------------------------|
D|----------------------------------------|----------------------------------|
A|--5-6-5---------------------------------|-----6----6----------3----3-------|
E|---------0--0--0--0--0--0-0-0--0--0--0--|--0--6----6----0--0--3----3----0--|

e|----------------------------------------|---------------------------------------|
B|----------------------------------------|---------------------------------------|
G|----------------------------------------|---------------------------------------|
D|----------------------------------------|---------------------------------------|
A|--5-6-5---------------------------------|------------------------------8--7--4--|
E|---------0--0--0--0--0--0-0-0--0--0--0--|--0--0-0-0--0--0--0--0--8--7-----------|

e|----------------------------------------|----------------------------------|
B|----------------------------------------|----------------------------------|
G|----------------------------------------|----------------------------------|
D|----------------------------------------|----------------------------------|
A|--5-6-5---------------------------------|-----3----3----------4----4-------|
E|---------0--0--0--0--0--0-0-0--0--0--0--|--0--3----3----0--0--4----4----0--|

e|-----------------------------------------|------||
B|-----------------------------------------|------||
G|-----------------------------------------|------||
D|-----------------------------------------|------||
A|-------------------------------3----5----|------||
E|--7-7-7-7-6-6-6-6-3-3-3-3-6----3----5----|------||

                                                 1,3     2        4
e|---------------------------------------------|-------|--------|------||
B|-------------------------------2-2--3-3--3-3-|--3-3--|--------|------||
G|*------------------------------6-6--7-7--7-7-|--7-7-*|-------*|------||
D|*--------------------------------------------|------*|-------*|------||
A|--------------------------1-1--5-5--6-6--6-6-|--3-3--|----1-1-|--8-8-||
E|-0-0000000-0000000-000000-1-1--5-5--6-6--6-6-|--3-3--|--0-1-1-|--8-8-||

                                                                                    4x
e||---------------------------------------------------------------------------------||
B||---------------------------------------------------------------------------------||
G||*-------------------------------------------------------------------------------*||
D||*--------------------------------------------------------------------------3----*||
A||---------------------------------------------------------------------------1-2-5-||
E||-222-2-22-/7-/15^-15^--222-2-22-/8-/15^-15^--333-3-33-/9-/17^-17^--111-1-1---2-5-||

e|--------------------------------------------------------------|
B|--------------------------------------------------------------|
G|--------------------------------------------------------------|
D|--------------------------------------------------------------|
A|-----1h2---1h2-5-7-8-7-5-4-----1h2---1h2--5-4-6-----1h2---1h2-|
E|-000-1h2-0-1h2-------------000-1h2-0-1h2--------000-1h2-0-1h2-|


e|-------------------------------||
B|-------------------------------||
G|-------------------------------||
D|-------------------------------||
A|--5-7-8-7-5-4-----1h2---1h2-\--||
E|--------------000-1h2-0-1h2-\--||

e|--------------------------------------------------------------|
B|--------------------------------------------------------------|
G|*-------------------------------------------------------------|
D|*-------------------------------------------------------------|
A|-----1h2---1h2-5-7-8-7-5-4-----1h2---1h2--5-4-6-----1h2---1h2-|
E|-000-1h2-0-1h2-------------000-1h2-0-1h2--------000-1h2-0-1h2-|

                 1                          2
e|--------------|--------------------------|------------------------|
B|--------------|--------------------------|------------------------|
G|--------------|-------------------------*|-----------------------*|
D|--------------|-------------------------*|-----------------------*|
A|--5-7-8-7-5-4-|----1h2---1h2-----1h2---3-|----1h2---7-----1h2---3-|
E|--------------|000-1h2-0-1h2-000-1h2-0-3-|000-1h2-0-7-000-1h2-0-3-|

  3
e|--------------------------||
B|--------------------------||
G|-------------------------*||
D|-------------------------*||
A|-----1h2---5-----1h2---3--||
E|-000-1h2-0-5-000-1h2-0-3--||

e|---------------------------------------------------------------------------------||
B|---------------------------------------------------------------------------------||
G|*-------------------------------------------------------------------------------*||
D|*--------------------------------------------------------------------------3----*||
A|---------------------------------------------------------------------------1-2-5-||
E|-222-2-22-/7-/15^-15^--222-2-22-/8-/15^-15^--333-3-33-/9-/17^-17^--111-1-1---2-5-||

e|--------------------------------------------------------------|
B|--------------------------------------------------------------|
G|*-------------------------------------------------------------|
D|*-------------------------------------------------------------|
A|-----1h2---1h2-5-7-8-7-5-4-----1h2---1h2--5-4-6-----1h2---1h2-|
E|-000-1h2-0-1h2-------------000-1h2-0-1h2--------000-1h2-0-1h2-|

                 1,4                        2
e|--------------|--------------------------|------------------------|
B|--------------|--------------------------|------------------------|
G|--------------|-------------------------*|-----------------------*|
D|--------------|-------------------------*|-----------------------*|
A|--5-7-8-7-5-4-|----1h2---1h2-----1h2---3-|----1h2---7-----1h2---3-|
E|--------------|000-1h2-0-1h2-000-1h2-0-3-|000-1h2-0-7-000-1h2-0-3-|

   3
e|--------------------------|-----------------||
B|--------------------------|-----------------||
G|-------------------------*|-----------------||
D|-------------------------*|-----------------||
A|-----1h2---5-----1h2---3--|-6-3-5-/7-6-3-0--||
E|-000-1h2-0-5-000-1h2-0-3--|-6-3-5-/7-6-3-0--||

e|-------------------|------------------|--------------------------------------|
B|-------------------|------------------|--------12--11------------------------|
G|-------------------|------------------|*-------------------------------------|
D|--0----------------|------------------|*---------------13--12h13p12----------|
A|--0----------------|------------------|--------------------------------------|
E|--0----------------|------------------|--------------------------------------|

e|--------------------------------------------------------|------|
B|----------------------12-11-----------------------------|------|
G|--------------------------------------------------------|-----*|
D|----------------------------13-12h13p-------------------|-----*|
A|-------------------------------------------17-----------|------|
E|--13-12-13-12-10-0---------------------12-----13-12-10r-|-0----|

e|----------------------------------------------|--------------------------------------------|
B|-----------12--11-----------------------------|--------------------------------------------|
G|*---------------------------------------------|--------------------------------------------|
D|*------------------13--12-13-12---------------|--------------------------------------------|
A|----------------------------------------------|------------------------------17------------|
E|-0--0-0-0------------------------0--0--0-0-0--|-0--0--0--0--0-0-0--0--12-13-----13--12--10-|

                                               1.
e|----------------------------------------------|-------------------------------------------|
B|-----------12--11-----------------------------|-------------------------------------------|
G|----------------------------------------------|------------------------------------------*|
D|-------------------13--12-13-12---------------|------------------------------------------*|
A|----------------------------------------------|-------------------------17----------------|
E|-0--0-0-0------------------------0--0--0-0-0--|--0--0--0--0--0-0-0--12------13--12--10r---|

  2.
e|------------------------------||----------------|
B|------------------------------||----------------|
G|-----------------------------*||----------------|
D|---------------8--8------5-5-*||----------------|
A|------------0--6--6---0--3-3--||----------1-0---|
E|-0--0--0-0--0---------0-------||--0-00-0------3-|

                                              4x
e|-------------------------------------------||
B|-----------3-------------------------------||
G|*------6----------------------------------*||
D|*-----------------------------------------*||
A|-0------------6--3-3---0-1-1---------1-0---||
E|-0------------6--3-3---0-1-1--0-00-0-----3-||

e|----------------------------------------------|--------------------------------------------|
B|-----------12--11-----------------------------|--------------------------------------------|
G|*---------------------------------------------|--------------------------------------------|
D|*------------------13--12-13-12---------------|--------------------------------------------|
A|----------------------------------------------|------------------------------17------------|
E|-0--0-0-0------------------------0--0--0-0-0--|-0--0--0--0--0-0-0--0--12-13-----13--12--10-|

                                               1.
e|----------------------------------------------|-------------------------------------------|
B|-----------12--11-----------------------------|-------------------------------------------|
G|----------------------------------------------|------------------------------------------*|
D|-------------------13--12-13-12---------------|------------------------------------------*|
A|----------------------------------------------|-------------------------17----------------|
E|-0--0-0-0------------------------0--0--0-0-0--|--0--0--0--0--0-0-0--12------13--12--10r---|

  2.
e|------------------------------||----------------|
B|------------------------------||----------------|
G|-----------------------------*||----------------|
D|---------------8--8------5-5-*||----------------|
A|------------0--6--6---0--3-3--||----------1-0---|
E|-0--0--0-0--0---------0-------||--0-00-0------3-|

                                              4x
e|-------------------------------------------||
B|-----------3-------------------------------||
G|*------6----------------------------------*||
D|*-----------------------------------------*||
A|-0------------6--3-3---0-1-1---------1-0---||
E|-0------------6--3-3---0-1-1--0-00-0-----3-||

                         3x
e|----------------------||----------------------------------------------|
B|----------------------||----------------------------------------------|
G|*--------------------*||-10-9-----------------------------------------|
D|*--------------------*||------11-11h12p11-8---------------------------|
A|---1-1---------1-0----||---------------------10-9-6----------0-----0--|
E|-0-1-1--0-00-0-----3--||-----------------------------4h5p4-1-0-----0--|



************************************

| h  Hammer-on
| p  Pull-off
| r  Release
| /  Slide up
| \  Slide down 

************************************
Suggest correction
comments
print report bad tab
34 comments total. Showing first comments.
+1 reply
playgtr055 40 Apr 15, 2005 08:00 PM

no solos?

+3 reply
Joseph Diehl 0 Apr 27, 2005 08:00 PM

this sucked

-1 reply
Joseph Diehl 0 Apr 27, 2005 08:00 PM

take that back, its ok, but yea, no solo

guest
You may want to rate the tab now too:
select rating
Wanna post a correction for this tab? Suggest correction