Oops, an error
Loading. Please wait.

Black Dahlia Bass Tab

version 1
version 1

Whole song

Interactive

571 views 1 this week
no commentswrite comment
1 2 3 4 5
please rate
add to favorites
launch autoscroll
font size
0
reset
guitar tuner
Tab Pro tools
  • play this tab
  • loop segment
  • change instrument
  • show fretboard
  • metronome
Autoscroll
slow
fast
+/-
esc
set tempo
stop
Contributor
Difficulty
Tuning
intermediate
D A D G B E
                           THE BLACK DAHLIA (Bassline)
                           As recorded by Lamb Of God
                    (From the 2000 Album NEW AMERICAN GOSPEL)

Words by Randy Blythe

Music by Lamb Of God
Arranged by Lamb Of God
Transcribed by Simon Montague-Bassett

Gtr I (D A D G) - 'John'

    Q=180
   4/4
    Gtr I
    S S E H.        W
||----------------|-------||
||o---------------|------o||
||o---------------|------o||
||--0-0-0---------|-------||


    S S E E E E E E E   E E E E E E E E  8x
||--------------------|------------------||
||o-------------------|-----------------o||
||o-------------------|---------------5-o||
||--0-0-0-2-0-5-0-6-3-|-0-4-0-0-3-5-6----||


    E E E E E E E E   E E E E E E E E  8x
||------------------|------------------||
||o-----------------|-----------------o||
||o-----------------|-----------------o||
||--0-0-2-0-5-0-6-3-|-0-0-0-6-6-6-3-6--||


  S S E H    E E   H.      S S E
|----------------|---------------|
|----------------|---------------|
|----------------|---------------|
|-0-0-0--------0-|---------1-1-1-|


  S S E H    E E   +W
|----------------|--------|
|----------------|--------|
|----------------|--------|
|-0-0-0--------0-|-(0)----|


    S S E E E E E E S S   E E S S E S S E E E
||----------------------|---------------------|
||o---------------------|---------------------|
||o---------------------|-----------------5---|
||--5-5-0-0-0-0-0-0-5-5-|-0-0-5-5-0-5-5-0---6-|


  S S E E E E E E S S   E E S S E S S E E E
|---------------------|---------------------|
|---------------------|---------------------|
|---------------------|-----------------5---|
|-5-5-0-0-0-0-0-0-5-5-|-0-0-5-5-0-5-5-0---6-|


 1.,2.,3.,4.,5.        6.
  E E E E E E S S E  6x E E E E E E Q
|--------------------||-----------------|
|-------------------o||-----------------|
|---5-6---5-6-------o||---5-6---5-6-----|
|-9-----5-----2-2-2--||-9-----5---------|


                                                 5/4
    S S E H.        W          S S E S S E H      W        Q
||----------------|----------|------------------|----------------||
||o---------------|----------|------------------|---------------o||
||o---------------|----------|------------------|---------------o||
||--3-3-2---------|----------|-3-3-2-3-3-2------|----------------||


   4/4
    S S E E E E E E S S   E E E E E E E E
||----------------------|-----------------|
||o---------------------|-----------------|
||o-------2---1---------|---2---3---4---5-|
||--3-3-2---3---2-1-3-3-|-2---3---4---5---|


                       5/4
  S S E S S E E E E E   E S S E E E E E E E E   4x
|---------------------|-------------------------||
|---------------------|------------------------o||
|-------------2---1---|---------2---1-----5-6--o||
|-3-3-2-3-3-2---3---2-|-1-3-3-2---3---2-3-------||


   4/4
    S S E S S E Q.   S S   E Q.   S S E S S E
||-----------------------|--------------------|
||o----------------------|--------------------|
||o----------------------|--------------------|
||--0-0-0-0-0-0------0-0-|-0------0-0-0-0-0-0-|


 5/4                         6/4
  S S E Q.   S S S S E Q  10x S S E H    E E H
|--------------------------||---------------------|
|-------------------------o||---------------------|
|-------------------------o||---------------------|
|-0-0-0------0-0-0-0-0-----||-0-0-0--------0------|


   4/4
    E E E E E E E E   E E E E E E E E  8x
||------------------|------------------||
||o-----------------|-----------------o||
||o-----------------|-----------------o||
||--0-0-2-0-5-0-6-3-|-0-0-0-6-6-6-3-6--||


  E E H.
|-----------*|
|-----------*|
|-----------*|
|-0-0-------*|


Duration Legend
---------------
W - whole; H - half; Q - quarter; E - 8th; S - 16th; T - 32nd; X - 64th; a - acciaccatura
+ - note tied to previous; . - note dotted; .. - note double dotted
Uncapitalized letters represent notes that are staccato (1/2 duration)
Irregular groupings are notated above the duration line
Duration letters will always appear directly above the note/fret number it represents the
duration for.  Duration letters with no fret number below them represent rests.  Multi-
bar rests are notated in the form Wxn, where n is the number of bars to rest for.  Low
melody durations appear below the staff

Tablature Legend
----------------
 h   - hammer-on
 p   - pull-off
 b   - bend
 pb  - pre-bend
 r   - bend release (if no number after the r, then release immediately)
 /\  - slide into or out of (from/to "nowhere")
 s   - legato slide
 S   - shift slide
  - natural harmonic
[n]  - artificial harmonic
n(n) - tapped harmonic
 ~   - vibrato
 tr  - trill
 T   - tap
 TP  - trem. picking
 PM  - palm muting
\n/  - tremolo bar dip; n = amount to dip
 \n  - tremolo bar down
 n/  - tremolo bar up
/n\  - tremolo bar inverted dip
 =   - hold bend; also acts as connecting device for hammers/pulls
 <>  - volume swell (louder/softer)
 x   - on rhythm slash represents muted slash
 o   - on rhythm slash represents single note slash

Misc Legend
-----------
 |  - bar
||  - double bar
||o - repeat start
o|| - repeat end
*|  - double bar (ending)
 :  - bar (freetime)
 $  - Segno
 &  - Coda
Tempo markers -  = BPM(8/16=s8/s16), where s8 = swing 8ths, s16 = swing 16ths
comments
We did not receive enough feedback on this tab! Please rate:
print report bad tab
1 2 3 4 5
I want to post or [tab]
guest
You may want to rate the tab now too:
select rating
Please do not post tabs as comments. Select "correction" instead!