Oops, an error
Loading. Please wait.

Black Label tab

version 5
version 5

Whole song

189 views 1 this week
no commentswrite comment
1 2 3 4 5
2 more votes to show rating
add to favorites
×
Save as Personal and add changes to this tab that will be seen only by you. Learn more ›
×
You can save this tab as Personal to edit and correct it or add notes. All changes will be seen only by you. Learn more »
launch autoscroll
font size
0
reset
how to read this tab
guitar tuner
backing track
0:00
0:00
edit
Autoscroll
slow
fast
+/-
esc
set tempo
stop
Tab for BLACK LABEL by Lamb of God. MOST tabs for this song are like 90% correct so its 
my hope this covers the last 10%. all guitars for this song are tuned to Drop D (low to 
high: DADGAd) tuning. enjoy!


Key:
Palm Mutes are signified by   .
HEAVY palm mutes are shown    X


opening riff (played 8 times)
||-------------------------------------||
||-------------------------------------||
||-------------------------------------||
||-------------------------------------||
||-------------------------------------||
||---0-0-0-0-1-0-0-3-0-4-0-3-0-0-1-0---||
|
|
| Guitar 2:
||-------------------------------------||
||-------------------------------------||
||-------------------------------------||
||-------------------------------------||
||---0-0-0-----------------------------||
||---0-0-0-----------------------------||
     . . .

  Guitar 1:
||-------------------------------------||
||-------------------------------------||
||-------------------------------------||
||-------------------------------------||
||-------------------------------------||
||---0-0-0-0-1-0-0-3-0-4-0-3-0-0-1-0---||
|
|
| Guitar 2:
||-------------------------------------||
||-------------------------------------||
||-------------------------------------||
||-------------------------------------||
||--0--0-0-----------------------------||
||--0--0-0-----------------------------||
    .  . .

Intro riff 2:  (played 8 times)
Both Guitars
||-------------------------------------||
||-------------------------------------||
||-------------------------------------||
||-------------------------------------||
||-----------1-----3---4---3-----1-----||
||---0-0-0-0-1-0-0-3-0-4-0-3-0-0-1-0---||


Riff A:

||-------------------------------------||
||-------------------------------------||
||-------------------------------------||
||-------------------------------------||
||---0-0-0-0-1-0-0-3-0-4-0-3-0---5-6---||
||---0-0-0-0-1-0-0-3-0-4-0-3-0-6-------||
     . . . .   . .   .   .   . .

||-------------------------------------||
||-------------------------------------||
||-------------------------------------||
||-------------------------------------||
||---0-0-0-0-1-0-0-3-0-4-0-3-0-8-7-----||
||---0-0-0-0-1-0-0-3-0-4-0-3-0-----8---||
     . . . .   . .   .   .   .

play riff A 8 times and end with:
||-------------------------------------||
||-------------------------------------||
||-------------------------------------||
||-------------------------------------||
||---0-0-0-0-1-0-0-3-0-4-0-0--1--1--1--||
||---0-0-0-0-1-0-0-3-0-4-0-0--1--1--1--||
     . . . .   . .   .   . .  .  .  .

Chorus:
  Both Guitars
||---------------------------------------------------------------||
||---------------------------------------------------------------||
||---------------------------------------------------------------||
||---------------------------------------------------------------|| x3
||------------------------------0-0-0-0-7-8-7-0-0-0-5-6-5--3--2--||
||--1-0-4-3~--1-0-4-3~--1-0-3-4-0-0-0-0-------0-0-0--------3--2--||
                                . . . .       . . .        .  .

||------------------------------||
||------------------------------||
||------------------------------||
||------------------------------||
||------------------------------||
||--1-0-4-3~--1-0-4-3~--1-0-3-4-||


Pre-Breakdown:
  Guitar 1:
||---------------------------------||---------------------------------||
||---------------------------------||---------------------------------||
||---------------------------------||---------------------------------||
||---------------------------------||---------------------------------||
||-0-0-0-0-7-8-7-0-0-0-5-6-5--3--3-||-0-0-0-0-7-8-7-0-0-0-5-6-5--3--2-||
||-0-0-0-0-------0-0-0--------3--2-||-0-0-0-0-------0-0-0--------3--2-||
|  . . . .       . . .        .  .    . . . .       . . .        .  .
|
| Guitar 2:
||---------------------------------||---------------------------------||
||--3------------------------------||--5------------------------------||
||--2------------------------------||--4------------------------------||
||--0------------------------------||--2------------------------------||
||--0------------------------------||--2------------------------------||
||--0------------------------------||--2------------------------------||

  Guitar 1:
||---------------------------------||---------------------------------||
||---------------------------------||---------------------------------||
||---------------------------------||---------------------------------||
||---------------------------------||---------------------------------||
||-0-0-0-0-7-8-7-0-0-0-5-6-5--3--3-||-0-0-0-0-7-8-7-0-0-0-5-6-5--3--2-||
||-0-0-0-0-------0-0-0--------3--2-||-0-0-0-0-------0-0-0--------3--2-||
|  . . . .       . . .        .  .    . . . .       . . .        .  .
|
| Guitar 2:
||---------------------------------||---------------------------------||
||--6------------------------------||--8------------------9-----------||
||--5------------------------------||--7------------------8-----------||
||--3------------------------------||--5------------------6-----------||
||--3------------------------------||--5------------------6-----------||
||--3------------------------------||--5------------------6-----------||

  Guitar 1:
||---------------------------------||---------------------------------||
||---------------------------------||---------------------------------||
||---------------------------------||---------------------------------||
||---------------------------------||---------------------------------||
||-0-0-0-0-7-8-7-0-0-0-5-6-5--3--3-||-0-0-0-0-7-8-7-0-0-0-5-6-5--3--2-||
||-0-0-0-0-------0-0-0--------3--2-||-0-0-0-0-------0-0-0--------3--2-||
|  . . . .       . . .        .  .    . . . .       . . .        .  .
|
| Guitar 2:
||---------------------------------||---------------------------------||
||--3------------------------------||--5------------------------------||
||--2------------------------------||--4------------------------------||
||--0------------------------------||--2------------------------------||
||--0------------------------------||--2------------------------------||
||--0------------------------------||--2------------------------------||

  Guitar 1:
||---------------------------------||---------------------------------||
||---------------------------------||---------------------------------||
||---------------------------------||---------------------------------||
||---------------------------------||---------------------------------||
||-0-0-0-0-7-8-7-0-0-0-5-6-5--3--3-||-0-0-0-0-7-8-7-0-0-0-5-6-5--3--2-||
||-0-0-0-0-------0-0-0--------3--2-||-0-0-0-0-------0-0-0--------3--2-||
|  . . . .       . . .        .  .    . . . .       . . .        .  .
|
| Guitar 2:
||---------------------------------||---------------------------------||
||--6------------------------------||--8------------------9-----------||
||--5------------------------------||--7------------------8-----------||
||--3------------------------------||--5------------------6-----------||
||--3------------------------------||--5------------------6-----------||
||--3------------------------------||--5------------------6-----------||


 play this one time
||-----------------------------------------------------------------||
||-----------------------------------------------------------------||
||-----------------------------------------------------------------||
||-----------------------------------------------------------------||
||-000-000-000-000-000-000-000-000-000-000-000-000-000-000-000-000-||
||-000-000-000-000-000-000-000-000-000-000-000-000-000-000-000-000-||
   ... ... ... ... ... ... ... ... ... ... ... ... ... ... ... ...


  Breakdown:

||--------------------------------------------------------------------||
||-HEAVILY palm mute these notes. make it sound like a "dead" note----||
||--------------------------------------------------------------------||
||--------------------------------------------------------------------|| x2
||-00-00-00-000000-00-00-000000-00-00-000000-00-00-000000-00-00-000000||
||-00-00-00-000000-00-00-000000-00-00-000000-00-00-000000-00-00-000000||
   XX XX XX XXXXXX XX XX XXXXXX XX XX XXXXXX XX XX XXXXXX XX XX XXXXXX


      Chorus again x3 and then:

||--------------------------------||
||--------------------------------||
||--------------------------------||
||--------------------------------||
||------------------------------0-||
||--1-0-4-3~--1-0-4-3~--1-0-3-4-0-|| quick pause
                                .

   Play riff A again, then play the prebreakdown and then this:

||------------------||
||------------------||
||------------------||
||-0~~~~~~~~~~~~~~~~||
||-0~~~~~~~~~~~~~~~~||
||-0~~~~~~~~~~~~~~~~||

Outro breakdown:

||---------------------------||
||---------------------------||
||---------------------------||
||---------0-0-0---0-0---0-0-||
||-0--0--0-6-6-6-0-0-0-0-4-4-||
||-0--0--0-------0-----0-----||
   .  .  .       .     .

            
            
Suggest correction
Creating personal tab
Creating personal tab
You can edit any tab online and save it as your Personal.

You can edit, replace or remove any tab part or add personal notes – all changes will be seen only by you.

Personal tabs can be accessed anytime from any device, even offline.
Learn more »
Give kudos to tab author, rate the tab!
1 2 3 4 5
comments
print report bad tab
guest
You may want to rate the tab now too:
select rating
Wanna post a correction for this tab? Suggest correction