Oops, an error
Loading. Please wait.

Black Label tab

version 6
version 6

Whole song

791 views 3 this week
2 commentsread comments
1 2 3 4 5
x 6
add to favorites
×
Save as Personal and add changes to this tab that will be seen only by you. Learn more ›
×
You can save this tab as Personal to edit and correct it or add notes. All changes will be seen only by you. Learn more »
launch autoscroll
font size
0
reset
how to read this tab
guitar tuner
backing track
0:00
0:00
edit
Autoscroll
slow
fast
+/-
esc
set tempo
stop
About this tab version
This is a complete version with picking notations and playthrough. Was this info helpful? Yes No
|--------------------------------------------------------------------------------------------------------|
|                                         LAMB OF GOD - BLACK LABEL                                      |
|                                     Album: New American Gospel (2000)                                  |
|--------------------------------------------------------------------------------------------------------|

                   If you have questions or corrections feel free to send me a message:
                                http://profile.ultimate-guitar.com/godspeedy/
                                    https://www.facebook.com/Godspeedy14
                     
                Also, check out my Youtube channel: http://www.youtube.com/user/Godspeedy14

                        *************************************************************
                        * NOTE: If you need a playthrough, check out my cover here: *
                        *        https://www.youtube.com/watch?v=tlAH5lgZ7EA        *
                        *************************************************************

                                         Tuning: 6 string DADGBE 
                                                    
*********************************************GUITAR NOTATIONS*********************************************
*                                                                                                        *
*                                      | *   palm mute           |                                       *
*                                      | ~   vibrato             |                                       *
*                                      | П   downstroke          |                                       *
*                                      | V   upstroke            |                                       *
*                                                                                                        *
**********************************************************************************************************

|--------------------------------------------------------------------------------------------------------|
|                                          INTRO (00:00-00:42)                                           |
|--------------------------------------------------------------------------------------------------------|

I. Guitar 1 (w/ dist) - no pull-offs in this riff, check live vids

   П  V  П  V  П  V  П  V  П  V  П  V  П  V  П  V   П  V  П  V  П  V  П  V  П  V  П  V  П  V  П  V
E|------------------------------------------------|------------------------------------------------|
B|------------------------------------------------|------------------------------------------------|
G|------------------------------------------------|------------------------------------------------| x3
D|------------------------------------------------|------------------------------------------------|
A|------------------------------------------------|------------------------------------------------|
D|-0--0--0--0--1--0--0--3--0--4--0--3--0--0--1--0-|-0--0--0--0--1--0--0--3--0--4--0--3--0--0--1--0-|

   П  V  П  V  П  V  П  V  П  V  П  V  П  V  П  V   П  V  П  V  П  V  П  V  П  V  П  V  П  V  П 
E|------------------------------------------------|------------------------------------------------|
B|------------------------------------------------|------------------------------------------------|
G|------------------------------------------------|------------------------------------------------|
D|------------------------------------------------|------------------------------------------------|
A|------------------------------------------------|------------------------------------------------|
D|-0--0--0--0--1--0--0--3--0--4--0--3--0--0--1--0-|-0--0--0--0--1--0--0--3--0--4--0--3--0--0--1----|

   Guitar 2 (w/ dist)
  
   П  П  П         П    П  П
E|-------------------|------------------|
B|-------------------|------------------|
G|-------------------|------------------| x4
D|-------------------|------------------|
A|-0--0--0---------0-|--0--0------------|
D|-0--0--0---------0-|--0--0------------|
   *  *  *         *    *  *

II. Guitars 1 and 2 (w/ dist)

   П  V  П  V  П  V  П  V  П  V  П  V  П  V  П  V    П  V  П  V  П  V  П  V  П  V  П  V  П  V  П  V
E|-------------------------------------------------|-------------------------------------------------|
B|-------------------------------------------------|-------------------------------------------------|
G|-------------------------------------------------|-------------------------------------------------| x4
D|-------------------------------------------------|-------------------------------------------------|
A|-------------------------------------------------|-------------------------------------------------|
D|-0--0--0--0--1--0--0--3--0--4--0--3--0--0--1--0--|-0--0--0--0--1--0--0--3--0--4--0--3--0--0--1--0--|

|--------------------------------------------------------------------------------------------------------|
|                                          VERSE (00:42-01:04)                                           |
|--------------------------------------------------------------------------------------------------------|

Guitars 1 and 2 (w/ dist)
  
   П  П  П  П  П  П  П  П  П  П  П  П  П  П  V  П   П  П  П  П  П  П  П  П  П  П  П  П  П  П  V  П 
E|------------------------------------------------|------------------------------------------------|
B|------------------------------------------------|------------------------------------------------|
G|------------------------------------------------|------------------------------------------------| x3
D|------------------------------------------------|------------------------------------------------|
A|-0--0--0--0--1--0--0--3--0--4--0--3--0-----5--6-|-0--0--0--0--1--0--0--3--0--4--0--3--0--8--7----|
D|-0--0--0--0--1--0--0--3--0--4--0--3--0--6-------|-0--0--0--0--1--0--0--3--0--4--0--3--0--------8-|
   *  *  *  *     *  *     *     *     *            *  *  *  *     *  *     *     *     *

   П  П  П  П  П  П  П  П  П  П  П  П  П  П  V  П   П  П  П  П  П  П  П  П  П  П  П  П  П   П   П
E|------------------------------------------------|------------------------------------------------|
B|------------------------------------------------|------------------------------------------------|
G|------------------------------------------------|------------------------------------------------|
D|------------------------------------------------|------------------------------------------------|
A|-0--0--0--0--1--0--0--3--0--4--0--3--0-----5--6-|-0--0--0--0--1--0--0--3--0--4--0--3--3---7---8--|
D|-0--0--0--0--1--0--0--3--0--4--0--3--0--6-------|-0--0--0--0--1--0--0--3--0--4--0--3--3---7---8--|
   *  *  *  *     *  *     *     *     *            *  *  *  *     *  *     *     *     *   *   *
                                    
|--------------------------------------------------------------------------------------------------------|
|                                          CHORUS (01:04-01:44)                                          |
|--------------------------------------------------------------------------------------------------------|

I. Guitars 1 and 2 (w/ dist)

   П  V  П  V    П  V  П  V   П  V  П  V  П   П  П  П  П  П  V  П  П  П  П  П  V  П  П   П 
E|------------------------------------------|-----------------------------------------------|
B|------------------------------------------|-----------------------------------------------|
G|------------------------------------------|-----------------------------------------------| x3
D|------------------------------------------|-----------------------------------------------|
A|------------------------------------------|-------------7--8--7-----------5--6--5--3---2--|
D|-1--0--4--3~~~~1--0--4--3~~~1--0--1--3--4-|-0--0--0--0-----------0--0--0-----------3---2--|
                                              *  *  *  *           *  *  *           *   *
 
   П  V  П  V    П  V  П  V   П  V  П  V  П
E|------------------------------------------|
B|------------------------------------------|
G|------------------------------------------|
D|------------------------------------------|
A|------------------------------------------|
D|-1--0--4--3~~~~1--0--4--3~~~1--0--1--3--4-|

II. Guitar 1 (w/ dist)

   П  П  П  П  П  V  П  П  П  П  П  V  П  П   П 
E|-----------------------------------------------|
B|-----------------------------------------------|
G|-----------------------------------------------| x4
D|-----------------------------------------------|
A|-------------7--8--7-----------5--6--5--3---2--|
D|-0--0--0--0-----------0--0--0-----------3---2--|
   *  *  *  *           *  *  *           *   * 

   П  П  П  П  П  V  П  П  П  П  П  V  П  П   П 
E|-----------------------------------------------|
B|-----------------------------------------------|
G|-----------------------------------------------| x4
D|-------------5--7--5-----------3--5--3---------|
A|----------------------------------------3---2--|
D|-0--0--0--0-----------0--0--0-----------3---2--|
   *  *  *  *           *  *  *           *   *

    Guitar 2 (w/ dist)

   П        П        П        П     П
E|--------|--------|--------|-------------|
B|-3------|-5------|-6------|-8-----9-----|
G|-2------|-4------|-5------|-7-----8-----| x2
D|-0------|-2------|-3------|-5-----6-----|
A|-0------|-2------|-3------|-5-----6-----|
D|-0------|-2------|-3------|-5-----6-----|

|--------------------------------------------------------------------------------------------------------|
|                                          BRIDGE (01:44-02:10)                                          |
|--------------------------------------------------------------------------------------------------------|

Guitars 1 and 2 (w/ dist)

   П V П  П V П  П V П  П V П  П V П  П V П  П V П  П V П 
E|---------------------------------------------------------|
B|---------------------------------------------------------|
G|---------------------------------------------------------| x2
D|---------------------------------------------------------|
A|---------------------------------------------------------|
D|-0-0-0--0-0-0--0-0-0--0-0-0--0-0-0--0-0-0--0-0-0--0-0-0--|
   * * *  * * *  * * *  * * *  * * *  * * *  * * *  * * *

   П V   П V   П V   П V П V П V   П V   П V   П V П V
E|-----------------------------------------------------|
B|-----------------------------------------------------|
G|-----------------------------------------------------| x8
D|-----------------------------------------------------|
A|-----------------------------------------------------|
D|-0-0---0-0---0-0---0-0-0-0-0-0---0-0---0-0---0-0-0-0-|
   * *   * *   * *   * * * * * *   * *   * *   * * * * 

|--------------------------------------------------------------------------------------------------------|
|                                         CHORUS 2 (02:10-02:29)                                         |
|--------------------------------------------------------------------------------------------------------|

Guitars 1 and 2 (w/ dist)
  
   П  V  П  V    П  V  П  V   П  V  П  V  П   П  П  П  П  П  V  П  П  П  П  П  V  П  П   П 
E|------------------------------------------|-----------------------------------------------|
B|------------------------------------------|-----------------------------------------------|
G|------------------------------------------|-----------------------------------------------| x3
D|------------------------------------------|-----------------------------------------------|
A|------------------------------------------|-------------7--8--7-----------5--6--5--3---2--|
D|-1--0--4--3~~~~1--0--4--3~~~1--0--1--3--4-|-0--0--0--0-----------0--0--0-----------3---2--|
                                              *  *  *  *           *  *  *           *   *

   П  V  П  V    П  V  П  V   П  V  П  V  П   П 
E|------------------------------------------|-----------------------------------------------|
B|------------------------------------------|-----------------------------------------------|
G|------------------------------------------|-----------------------------------------------|
D|------------------------------------------|-0---------------------------------------------|
A|------------------------------------------|-0---------------------------------------------|
D|-1--0--4--3~~~~1--0--4--3~~~1--0--1--3--4-|-0---------------------------------------------|

|--------------------------------------------------------------------------------------------------------|
|                                         VERSE 2 (02:29-02:51)                                          |
|--------------------------------------------------------------------------------------------------------|
                                              same as VERSE
|--------------------------------------------------------------------------------------------------------|
|                                         CHORUS 3 (02:51-03:12)                                         |
|--------------------------------------------------------------------------------------------------------|

Guitar 1 (w/ dist)

   П  П  П  П  П  V  П  П  П  П  П  V  П  П   П 
E|-----------------------------------------------|
B|-----------------------------------------------|
G|-----------------------------------------------| x4
D|-----------------------------------------------|
A|-------------7--8--7-----------5--6--5--3---2--|
D|-0--0--0--0-----------0--0--0-----------3---2--|
   *  *  *  *           *  *  *           *   * 

   П  П  П  П  П  V  П  П  П  П  П  V  П  П   П 
E|-----------------------------------------------|
B|-----------------------------------------------|
G|-----------------------------------------------| x4
D|-------------5--7--5-----------3--5--3---------|
A|----------------------------------------3---2--|
D|-0--0--0--0-----------0--0--0-----------3---2--|
   *  *  *  *           *  *  *           *   *

    Guitar 2 (w/ dist)

   П        П        П        П     П
E|--------|--------|--------|-------------|
B|-3------|-5------|-6------|-8-----9-----|
G|-2------|-4------|-5------|-7-----8-----| x2
D|-0------|-2------|-3------|-5-----6-----|
A|-0------|-2------|-3------|-5-----6-----|
D|-0------|-2------|-3------|-5-----6-----|

|--------------------------------------------------------------------------------------------------------|
|                                          OUTRO (03:12-04:52)                                           |
|--------------------------------------------------------------------------------------------------------|

I. Guitars 1 and 2 (w/ dist)
   
   П
E|--------|-------|-------|-------|
B|--------|-------|-------|-------|
G|--------|-------|-------|-------|
D|-0------|-------|-------|-------|
A|-0------|-------|-------|-------|
D|-0------|-------|-------|-------|

II. Guitar 1 (w/ dist)
   
   П   П   П   П   П   П   П   П   П   П   П   П   
E|------------------------------------------------|
B|------------------------------------------------|
G|------------------------------------------------| x4
D|-------------0---0---0-------0---0-------0---0--|
A|-0---0---0---6---6---6---0---0---0---0---4---4--|
D|-0---0---0---------------0-----------0----------|
   *   *   *               *           *

III. Guitars 1 and 2 (w/ dist) - slowly fades out

   П   П   П   П   П   П   П   П   П   П   П   П   
E|------------------------------------------------|
B|------------------------------------------------|
G|------------------------------------------------| x16
D|-------------0---0---0-------0---0-------0---0--|
A|-0---0---0---6---6---6---0---0---0---0---4---4--|
D|-0---0---0---------------0-----------0----------|
   *   *   *               *           *



            
            
Suggest correction
Creating personal tab
Creating personal tab
You can edit any tab online and save it as your Personal.

You can edit, replace or remove any tab part or add personal notes – all changes will be seen only by you.

Personal tabs can be accessed anytime from any device, even offline.
Learn more »
comments
print report bad tab
2 comments total.
0 reply
P_Trik 5,928 Jun 05, 2015 02:01 PM

Great job. Thanks!

0 reply
garniecmleka 10 Jul 04, 2016 02:59 AM

best tab of black label right here :) thanks

guest
You may want to rate the tab now too:
select rating
Wanna post a correction for this tab? Suggest correction