Oops, an error
Loading. Please wait.

Blacken The Cursed Sun tab

version 1
version 1
67,609 views 39 this week
18 commentsread comments
1 2 3 4 5
x 34
add to favorites
×
Save as Personal and add changes to this tab that will be seen only by you. Learn more ›
×
You can save this tab as Personal to edit and correct it or add notes. All changes will be seen only by you. Learn more »
launch autoscroll
font size
0
reset
how to read this tab
guitar tuner
backing track
0:00
0:00
edit
Autoscroll
slow
fast
+/-
esc
set tempo
stop
LAMB OF GOD
SACRAMENT
"BLACKEN THE CURSED SUN"

DROPPED D (d a d g b e) low to high

[INTRO] w/ delay
E|-------------------------------------------------------------------------|
B|-------------------------------------------------------------------------|
G|-------------------------------------------------------------------------|
D|-------------------------------------------------------------------------|
A|-------------------------------------------------------------------------|
D|-11/12-12-12-12-12-12-12-12-12-12-12-12/15-15-15-15-15-15-15-15-15-15-15-|

E|-------------------------------------------------------------------|
B|-------------------------------------------------------------------|
G|-------------------------------------------------------------------|
D|-------------------------------------------------------------------|
A|-------------------------------------------------------------------|
D|-15\14-14-14-14-14-14-14-14-14-14-14-14\8-8-8-8-8-8/11-11-11-11-11-|

E|-------------------------------------------------------------------------|
B|-------------------------------------------------------------------------|
G|-------------------------------------------------------------------------|
D|-------------------------------------------------------------------------|
A|-------------------------------------------------------------------------|
D|-11/12-12-12-12-12-12-12-12-12-12-12-12/15-15-15-15-15-15-15-15-15-15-15-|

E|-------------------------------------------------------------------------|
B|-------------------------------------------------------------------------|
G|-------------------------------------------------------------------------|
D|-------------------------------------------------------------------------|
A|-------------------------------------------------------------------------|
D|-15\14-14-14-14-14-14-14-14-14-14-14-14\10-10-10-10-10-10/13-13-13-13-13-|

guitar 2 (enter 3rd time)
E|-------------------------------------------------|
B|-------------------------------------------------|
G|-------------------------------------------------|
D|-5\3-3-3-3-3-3-3-3-3-3-3-3/7-7-7-7-7-7-7-7-7-7-7-|
A|-------------------------------------------------|
D|-------------------------------------------------|

E|-------------------------------------------------|-------------------------|
B|-------------------------------------------------|-------------------------|
G|-------------------------------------------------|-------------------------|
D|-7\6-6-6-6-6-6-6-6-6-6-6-6\1-1-1-1-1-1/5-5-5-5-5-|-------------------------|
A|-------------------------------------------------|-------------------------|
D|-------------------------------------------------|-8-7-5-7-5-4-5-4-1-3-1-4-|

[CHORUS]                                                                                1st_ending___________
E|-----------------------------------------------------------------------------------------------------------|
B|-----------------------------------------------------------------------------------------------------------|
G|6/7-7-7-7-7-7-7-7-7-7-7-7-10-10-10-10-10-10-10-10-10-10-10-10\9-9-9-9-9-9-9-9-9-9-9-9\3-3-3-3-3-3/6-6-6-6-6|
D|x-x-x-x-x-x-x-x-x-x-x-x-x-x--x--x--x--x--x--x--x--x--x--x--x--x-x-x-x-x-x-x-x-x-x-x-x-x-x-x-x-x-x-x-x-x-x-x|
A|4/5-5-5-5-5-5-5-5-5-5-5-5/8--8--8--8--8--8--8--8--8--8--8--8\-7-7-7-7-7-7-7-7-7-7-7-7\1-1-1-1-1-1/4-4-4-4-4|
D|-----------------------------------------------------------------------------------------------------------|

  2nd_ending______________
E|-------------------------|
B|-------------------------|
G|-5-5-5-5-5-5/8-8-8-8-8-8-|
D|-x-x-x-x-x-x-x-x-x-x-x-x-|
A|-3-3-3-3-3-3/6-6-6-6-6-6-|
D|-------------------------|

third and forth times (same strum pattern here with these chords)
E|----------------------------|
B|-10----15-----13-----7---11-|
G|-x------x------x-----x----x-|
D|-7-----12-----11-----5----8-|
A|----------------------------|
D|----------------------------|

E|-------------------------|
B|-------------------------|
G|-------------------------|
D|-------------------------|
A|-------------------------|
D|-8-7-5-7-5-4-5-4-1-3-1-4-|
                  
  [Verse]         
E|-------------------------|-------------------------------------------------|
B|-------------------------|-------------------------------------------------|
G|-------------------------|-------------------------------------------------|
D|-------------------------|-------------------------------------------------|
A|-------------------------|-------------------------3-3-3-3-3-3-2-2-2-2-2-2-|
D|-3p0-0-0-0-0-0-0-0-0-1-4-|-3/6-6-6-6-6-6-6-6-6-6-6-1-1-1-1-1-1-1-1-1-1-1-1-|
      .............

E|-------------------------------------------------|----------------------|
B|-------------------------------------------------|----------------------|
G|-------------------------------------------------|----------------------|
D|-------------------------------------------------|----------------------|
A|-------------------------6-6-6-6-6-6-5-5-5-5-5-5-|--6----5----3----2----|
D|-6/7-7-7-7-7-5/6-6-6-6-6-4-4-4-4-4-4-4-4-4-4-4-4-|--4----4----1----1----|

[Pre-Chorus]
E|----------------------------------------------------------|
B|----------------------------------------------------------|
G|-7-----------7----------11--------------------------------|
D|-7-----------7----------x---------------------------------|
A|-9-----------8----------9--------3/5-5--8\7-7-7\1-1-1/4-4-|
D|----------------------------------------------------------|

E|----------------------------------------------------------|
B|----------------------------------------------------------|
G|--7----------7----------7---------------------------------|
D|--7----------7----------7---------------------------------|
A|------------------------9--------3/5-5--8\7-7-7\1-1-1/4-4-|
D|--4----------3----------7---------------------------------|

E|---------|
B|---------|
G|---------|
D|--11h12~-|
A|---------|
D|---------|

[Chorus 1]
E|-----------------------------------------------------------------------------------------------------------|
B|-----------------------------------------------------------------------------------------------------------|
G|6/7-7-7-7-7-7-7-7-7-7-7-7-10-10-10-10-10-10-10-10-10-10-10-10\9-9-9-9-9-9-9-9-9-9-9-9\3-3-3-3-3-3/6-6-6-6-6|
D|x-x-x-x-x-x-x-x-x-x-x-x-x-x--x--x--x--x--x--x--x--x--x--x--x--x-x-x-x-x-x-x-x-x-x-x-x-x-x-x-x-x-x-x-x-x-x-x|
A|4/5-5-5-5-5-5-5-5-5-5-5-5/8--8--8--8--8--8--8--8--8--8--8--8\-7-7-7-7-7-7-7-7-7-7-7-7\1-1-1-1-1-1/4-4-4-4-4|
D|-----------------------------------------------------------------------------------------------------------|

  2_______________________
E|-------------------------|
B|-------------------------|
G|-5-5-5-5-5-5/8-8-8-8-8-8-|
D|-x-x-x-x-x-x-x-x-x-x-x-x-|
A|-3-3-3-3-3-3/6-6-6-6-6-6-|
D|-------------------------|

  [Verse]         
E|-------------------------|-------------------------------------------------|
B|-------------------------|-------------------------------------------------|
G|-------------------------|-------------------------------------------------|
D|-------------------------|-------------------------------------------------|
A|-------------------------|-------------------------3-3-3-3-3-3-2-2-2-2-2-2-|
D|-3p0-0-0-0-0-0-0-0-0-1-4-|-3/6-6-6-6-6-6-6-6-6-6-6-1-1-1-1-1-1-1-1-1-1-1-1-|
      .............

E|-------------------------------------------------|----------------------|
B|-------------------------------------------------|----------------------|
G|-------------------------------------------------|----------------------|
D|-------------------------------------------------|----------------------|
A|-------------------------6-6-6-6-6-6-5-5-5-5-5-5-|--6----5----3----2----|
D|-6/7-7-7-7-7-5/6-6-6-6-6-4-4-4-4-4-4-4-4-4-4-4-4-|--4----4----1----1----|

[During Second Pre-Chorus]
E|----------------------------------------|
B|----------------------------------------|
G|----------------------------------------|
D|----------------------------------------|
A|----------------------------------------|
D|-0--0--0-0-0-0--0--0-0-0--0--0--0-0-0-0-|

[BREAKDOWN]
E|----------------------------------------------------------------------------------|
B|----------------------------------------------------------------------------------|
G|----------------------------------------------------------------------------------|
D|----------------------------------------------------------------------------------|
A|----------------------------------------------------------------------------------|
D|-0-0-0-0----0-0-0-0-0-0-0-0----0-0-0-0-0-0-0-0----0-0-0-0-8-7-5-7-5-4-5-4-1-3-1-4-|
   .......    ...............    ...............    .......

E|--------------------------------------------------------------------------------------|
B|--------------------------------------------------------------------------------------|
G|--------------------------------------------------------------------------------------|
D|----------------------------------------------------------7h8p7---7-----2h3p2---3-----|
A|----------------------------------------------------------------8---8\4-------4-----5-|
D|-0-0-0-0----0-0-0-0-0-0-0-0----0-0-0-0-0-0-0-0----0-0-0-0-------------------------6---|
   .......    ...............    ...............    .......

[Interlude]
E|------------------------------------------------------------------------|
B|------------------------------------------------------------------------|
G|-----7------------------7------------------7----7-----------------------|
D|-----7------------------7------------------7------8-7-6-5-7-6-5-7-8-7-6-|
A|-------------------------------------------9----------------------------|
D|-0h4----4-4-4-4h7-7-0h3---3-3-3-3h-7-7-0h7------------------------------|

same riff but the end is played on a lower string for guitar 2 here
E|---------------------------------------------------------------------------|
B|---------------------------------------------------------------------------|
G|---------------------------------------------------------------------------|
D|---------------------------------------12----------------------------------|
A|------------------------------------------13-12-11-10-12-11-10-12-13-12-11-|
D|---------------------------------------------------------------------------|

» Wah effect on this riff
E|-------------------------------------------------------------------------------------------------|
B|-------------------------------------------------------------------------------------------------|
G|-------------------------------------------------------------------------------------------------|
D|-------------------------------------------------------------------------------------------------|
A|-------------------------------------------------------------------------5-----------------------|
D|-4-4-4-4-4-4-4-4-4-4-7-4-3-3-3-3-3-3-3-3-3-3-7-3-0-0-0-0-0-0-0-0-0-0-0-0---8-7-6-5-7-6-5-7-8-7-6-|

E|----------------------------------------|
B|----------------------------------------|
G|----------------------------------------|
D|----------------------------------------|
A|----------------------------------------|
D|-0--0--0-0-0-0--0--0-0-0--0--0--0-0-0-0-|

[Outro]
E|--------------------------------------------------|
B|--------------------------------------------------|
G|--------------------------------------------------|
D|--------------------------------------------------|
A|--------------------------5-----------------------|
D|-4--(4)/7-3--(3)/7--0-------8-7-6-5-7-6-5-7-8-7-6-|
                            .......................

E|----------------------------------------|
B|----------------------------------------|
G|----------------------------------------|
D|----------------------------------------|
A|----------------------------------------|
D|-0--0--0-0-0-0--0--0-0-0--0--0--0-0-0-0-|

figure out the structure and stuff yourself, comments and corrections welcome...

************************************

| /  Slide up
| \  Slide down
| x  Dead note
| p  Pull-off
| h  Hammer-on
| ~  Vibrato
| .  Palm Mute

************************************

            
            
Suggest correction
Creating personal tab
Creating personal tab
You can edit any tab online and save it as your Personal.

You can edit, replace or remove any tab part or add personal notes – all changes will be seen only by you.

Personal tabs can be accessed anytime from any device, even offline.
Learn more »
comments
print report bad tab
18 comments total. Showing first comments.
+3 reply
CrosseGod18 464 Sep 07, 2006 05:38 PM

haven't tried the whole thing but the intro is perfect!!! you get 5 just for that. This album kicks yours ass from track 1 to 11 and this one is no exception. Nice!!

+2 reply
ll anti-hero ll 20 Sep 09, 2006 01:06 PM

everything seems to be good, but the in the begining, it sounds like it should be on the A string instead of the D string, the notes are right the song just sounds like it has a different tamber than what you have

-2 reply
doogy.houser 10 Sep 19, 2006 04:52 PM

looks good man. i just wish u would have organzed it a lil better, stead of bein so goddamn lazy lol

guest
You may want to rate the tab now too:
select rating
Wanna post a correction for this tab? Suggest correction