Oops, an error
Loading. Please wait.

Blacken The Cursed Sun bass

version 2
version 2
133 views 3 this week
no commentswrite comment
1 2 3 4 5
3 more votes to show rating
add to favorites
×
Save as Personal and add changes to this tab that will be seen only by you. Learn more ›
×
You can save this tab as Personal to edit and correct it or add notes. All changes will be seen only by you. Learn more »
launch autoscroll
font size
0
reset
guitar tuner
backing track
0:00
0:00
edit
Autoscroll
slow
fast
+/-
esc
set tempo
stop
Blacken The Cursed Sun Bass tab
Tuning: Drop D
Bass track is available on Youtube (use it!) : /watch?v=GNV6PqQrVNw
Initial tab: totalxanarchy
Correction by: Pindapoeper

totalxanarchy is the original contributor of this tab, I made a couple of adjustments, mainly in the verse!
I also changed it to chronological order, because some people got confused by the original tab (including me).
So a massive thanks to totalxanarchy for taking the time and effort to create this tab!

INTRO (0:22)
G -----------------------|
D -----------------------|
A -----------------------|
D 8-7-5-7-5-4-5-4-1-3-1-4|

Chorus 
G -------------------------------------------------------------------|
D -------------------------------------------------------------------|
A -------------------------------------------------------------------|
D 0-0-0-0-0-0-0-0-0-0-0-0-0/3-3-3-3-3-3-3-3-3-3-3\2-2-2-2-2-2-2-2-2-2|

G ----------------------------------|
D ----------------------------------|
A ----------------------------------|
D 2/8-8-8-8-8-8-8/11-11-11-11-11-11-|

G -------------------------------------------------------------------|
D -------------------------------------------------------------------|
A -------------------------------------------------------------------|
D 0-0-0-0-0-0-0-0-0-0-0-0-0/3-3-3-3-3-3-3-3-3-3-3\2-2-2-2-2-2-2-2-2-2|

G ----------------------------------------|
D ----------------------------------------|
A ----------------------------------------|
D 2/10-10-10-10-10-10-10/13-13-13-13-13-13|

G -------------------------------------------------------------------|
D -------------------------------------------------------------------|
A -------------------------------------------------------------------|
D 0-0-0-0-0-0-0-0-0-0-0-0-0/3-3-3-3-3-3-3-3-3-3-3\2-2-2-2-2-2-2-2-2-2|

G ----------------------------------|
D ----------------------------------|
A ----------------------------------|
D 2/8-8-8-8-8-8-8/11-11-11-11-11-11-|

G -------------------------------------------------------------------|
D -------------------------------------------------------------------|
A -------------------------------------------------------------------|
D 0-0-0-0-0-0-0-0-0-0-0-0-0/3-3-3-3-3-3-3-3-3-3-3\2-2-2-2-2-2-2-2-2-2|

G -----------------------|
D -----------------------|
A -----------------------|
D 8-7-5-7-5-4-5-4-1-3-1-4|

VERSE (Sieze a darkened day....)
G -----------------------------------------------------------------|
D -----------------------------------------------------------------|
A -----------------------------------------------------------------|
D 3/0-0-0-0-0-0-0-0-1-4-3-3/0-0-0-0-0-0-0-1-4-3-3/6--6-6-6-6-6-6-6-|

G -----------------------|
D -----------------------|
A ------------2-2-2-2-2-2|
D 1-1-1-1-1-1------------|

G ----------------------------------------------------------------|
D ----------------------------------------------------------------|
A ----------------------------------------------------------------|
D 3/0-0-0-0-0-0-0-1-4-3-3/0-0-0-0-0-0-0-1-4-3\-7-7-7-7-7/6-6-6-6-6|

G ------------------------|
D ------------------------|
A ------------5-5-5-5-5-5-|
D 3-3-3-3-3-3-------------|

G -----------------------------------------------------------------|
D -----------------------------------------------------------------|
A -----------------------------------------------------------------|
D 3/0-0-0-0-0-0-0-0-1-4-3-3/0-0-0-0-0-0-0-1-4-3-3/6--6-6-6-6-6-6-6-|

G -----------------------|
D -----------------------|
A ------------2-2-2-2-2-2|
D 1-1-1-1-1-1------------|


(Sanctity a breath awayyyy...)
G -------------------------------------------------------------------------------|
D -------------------------------------------------------------------------------|
A ------------------------------------------------------5-5-5-5-5---------2-2-2-2|
D 3/0-0-0-0-0-0-0-1-4-3-3/0-0-0-0-0-0-0-1-4-3-4-4-4-4-4-----------1-1-1-1--------|


PRECHORUS (follows beat of bass drum if you can hear it)
G ----------------------------------------------------|
D ----------------------------------------------------|
A ----------------------------------------------------|
D 4-4-4-4-4-4-4~~3-3-3-3-3-3-3~~00-0-00-0-00-0-000-000|

G -------------------------------|
D -------------------------------|
A -------------------------------|
D 4-4-4-4-4-4-4~~3-3-3-3-3-3-3--3|

G -------------------------------------------------------------------|
D -------------------------------------------------------------------|
A -------------------------------------------------------------------|
D 0-0-0-0-0-0-0-0-0-0-0-0-0/3-3-3-3-3-3-3-3-3-3-3\2-2-2-2-2-2-2-2-2-2|

G ----------------------------------------|
D ----------------------------------------|
A ----------------------------------------|
D 2/10-10-10-10-10-10-10/13-13-13-13-13-13|


G -------------------------------------------------------------------|
D -------------------------------------------------------------------|
A -------------------------------------------------------------------|
D 0-0-0-0-0-0-0-0-0-0-0-0-0/3-3-3-3-3-3-3-3-3-3-3\2-2-2-2-2-2-2-2-2-2|

G -----------------------|
D -----------------------|
A -----------------------|
D 8-7-5-7-5-4-5-4-1-3-1-4|


POSTCHORUS
G -----------------------------------------------------------------------------|
D -----------------------------------------------------------------------------|
A ---------------------------------------------------------------------------2x|
D 3/0-0-0-0-0-0-0-0-1-4-3-3/0-0-0-0-0-0-0-1-4-3-3/6--6-6-6-6-6-6\1-1-1-1-1-1---|

Verse 
G -----------------------------------------------------------------|
D -----------------------------------------------------------------|
A -----------------------------------------------------------------|
D 3/0-0-0-0-0-0-0-0-1-4-3-3/0-0-0-0-0-0-0-1-4-3-3/6--6-6-6-6-6-6-6-|

G -----------------------|
D -----------------------|
A ------------2-2-2-2-2-2|
D 1-1-1-1-1-1------------|

G ----------------------------------------------------------------|
D ----------------------------------------------------------------|
A ----------------------------------------------------------------|
D 3/0-0-0-0-0-0-0-1-4-3-3/0-0-0-0-0-0-0-1-4-3\-7-7-7-7-7/6-6-6-6-6|

G ------------------------|
D ------------------------|
A ------------5-5-5-5-5-5-|
D 3-3-3-3-3-3-------------|

G -----------------------------------------------------------------|
D -----------------------------------------------------------------|
A -----------------------------------------------------------------|
D 3/0-0-0-0-0-0-0-0-1-4-3-3/0-0-0-0-0-0-0-1-4-3-3/6--6-6-6-6-6-6-6-|

G -----------------------|
D -----------------------|
A ------------2-2-2-2-2-2|
D 1-1-1-1-1-1------------|


(Sanctity a breath awayyyy...)
G -------------------------------------------------------------------------------|
D -------------------------------------------------------------------------------|
A ------------------------------------------------------5-5-5-5-5---------2-2-2-2|
D 3/0-0-0-0-0-0-0-1-4-3-3/0-0-0-0-0-0-0-1-4-3-4-4-4-4-4-----------1-1-1-1--------|


2ND PRECHORUS  (Sanctity a breath awayy...)
G ----------------------------------------------------
D ----------------------------------------------------
A ----------------------------------------------------
D 4-4-4-4-4-4-4~~3-3-3-3-3-3-3~~00-0-00-0-00-0-000-000 

G -------------------------------------------------------
D -------------------------------------------------------
A ------------------------------------------------------- 
D 4-4-4-4-4-4-4~~3-3-3-3-3-3-3~~0--0-0-0000-0-000-0-000-0 

2ND PRECHORUS  (Sanctity a breath awayy...)
G ----------------------------------------------------
D ----------------------------------------------------
A ----------------------------------------------------
D 4-4-4-4-4-4-4~~3-3-3-3-3-3-3~~00-0-00-0-00-0-000-000 
                         
G -------------------------------
D ------------------------------- 
A -------------------------------
D 4-4-4-4-4-4-4~~3-3-3-3-3-3-3--3 
G -------------------------------------------------------------------|
D -------------------------------------------------------------------|
A -------------------------------------------------------------------|
D 0-0-0-0-0-0-0-0-0-0-0-0-0/3-3-3-3-3-3-3-3-3-3-3\2-2-2-2-2-2-2-2-2-2|

G ----------------------------------|
D ----------------------------------|
A ----------------------------------|
D 2/8-8-8-8-8-8-8/11-11-11-11-11-11-|

G -------------------------------------------------------------------|
D -------------------------------------------------------------------|
A -------------------------------------------------------------------|
D 0-0-0-0-0-0-0-0-0-0-0-0-0/3-3-3-3-3-3-3-3-3-3-3\2-2-2-2-2-2-2-2-2-2|

G ----------------------------------------|
D ----------------------------------------|
A ----------------------------------------|
D 2/10-10-10-10-10-10-10/13-13-13-13-13-13|

G -------------------------------------------------------------------|
D -------------------------------------------------------------------|
A -------------------------------------------------------------------|
D 0-0-0-0-0-0-0-0-0-0-0-0-0/3-3-3-3-3-3-3-3-3-3-3\2-2-2-2-2-2-2-2-2-2|

G ----------------------------------|
D ----------------------------------|
A ----------------------------------|
D 2/8-8-8-8-8-8-8/11-11-11-11-11-11-|

G -------------------------------------------------------------------|
D -------------------------------------------------------------------|
A -------------------------------------------------------------------|
D 0-0-0-0-0-0-0-0-0-0-0-0-0/3-3-3-3-3-3-3-3-3-3-3\2-2-2-2-2-2-2-2-2-2|

G -----------------------|
D -----------------------|
A -----------------------|
D 8-7-5-7-5-4-5-4-1-3-1-4|


BRIDGE X2   (Whispers: is there still hope for us can we still be saved...) 
G ---------------------------------------------------------|
D ---------------------------------------------------------|
A ---------------------------------------------------------|
D 0000--000-00000--000-00000--000-0-8-7-5-7-5-4-5-4-1-3-1-4|
(the opens (0) are palm muted)

G ------------------------------------------------------|
D ------------------------------------------------------|
A ------------------------------------------------------|
D 0000--000-00000--000-00000-0000-7--4-7-3-4-3-4-0-3-2-1|

BREAKDOWN

Short guitar break, then bass comes in with

G -----------------------------|
D -----------------------------|
A -----------------------------|
D 3-5-6-0--0-000-0-00-0-000-000|

G ------------------------------------------------------------------------|
D ------------------------------------------------------------------------|
A ------------------------------------------------------------------------|
D 4-4-4-4-4-4-4-4-4-7-7-7-3-3-3-3-3-3-3-3-3-7-7-7-0--0--0-0-00-0-000-0-000-0|

(You're just a breath away...)
G --------------------------------------------------------------------|
D --------------------------------------------------------------------|
A --------------------------------------------------------------------|
D 4-4-4-4-4-4-4-4-4-7-7-7-3-3-3-3-3-3-3-3-3-7-7-7-0-000-0-00-0-000-000|

G ------------------------------------------------|
D ------------------------------------------------|
A ------------------------------------------------|
D 4-4-4-4-4-4-4-4-4-7-7-7-3-3-3-3-3-3-3-3-3-7-7-7-|

G ---------------------------------------|
D ---------------------------------------|
A ---------------------------------------|
D 0--0--0-0-00-0-000-0-000-0-0--0--0-0-00|

2nd BREAKDOWN (Better to die quick.....) 4x
G ----------------------------------------------------------------
D ----------------------------------------------------------------
A ----------------------------------------------------------------
D 4-4-4-4-4-4-4-4-4-7-7-7-3-3-3-3-3-3-3-3-3-7-7-7-0--0--0--0--0--0 
                                                                     
G -----------------------                                           
D -----------------------                                         
A 5----------------------                                         
D --8-7-6-5-7-6-5-7-8-7-6

End part of breakdown: 2x !
G -----------------------------------|
D -----------------------------------|
A ------------5----------------------| 
D 0--0--0--0----8-7-6-5-7-6-5-7-8-7-6|

(Beggin on your, beggin on your kneeeeeeeeeeeeeeeees.......) 2x
G -----------------------|
D -----------------------|
A 5----------------------|
D --8-7-6-5-7-6-5-7-8-7-6|

OUTRO 
G --------------------------|
D --------------------------|
A --------------------------|Repeat till end
D 0--0--0-0-00-0-000-0-000-0|

End! Awesome song :)

Again, thanks totalxanarchy!

            
            
Suggest correction
Creating personal tab
Creating personal tab
You can edit any tab online and save it as your Personal.

You can edit, replace or remove any tab part or add personal notes – all changes will be seen only by you.

Personal tabs can be accessed anytime from any device, even offline.
Learn more »
Give kudos to tab author, rate the tab!
1 2 3 4 5
comments
print report bad tab
guest
You may want to rate the tab now too:
select rating
Wanna post a correction for this tab? Suggest correction