Oops, an error
Loading. Please wait.

Blood Of The Scribe bass

version 2
version 2

Whole song

2,872 views 1 this week
1 commentread comment
1 2 3 4 5
x 3
add to favorites
×
Save as Personal and add changes to this tab that will be seen only by you. Learn more ›
×
You can save this tab as Personal to edit and correct it or add notes. All changes will be seen only by you. Learn more »
launch autoscroll
font size
0
reset
guitar tuner
edit
Autoscroll
slow
fast
+/-
esc
set tempo
stop
-------------------------------------------------------------------------------
			     Blood Of The Scribe -  Lamb Of God
-------------------------------------------------------------------------------
Tabbed By: 11thHour
e-mail: necromoniconexmortus@hotmail.com 
Tuning: Drop D


Enjoy! :)


Riff 1:
G|----------------------------------------------------------|
D|-------------7-----5-----------6--------------------------|
A|-------5-----------------7-----------8--------------------|
D|-0-000---0-0---0-0---0-0---0-0---0-0---0-0-3-5-6----------|

G|----------------------------------------------------------|
D|-------------7-----5-----------6--------------------------|
A|-------5-----------------7--------------------------------|
D|-0-000---0-0---0-0---0-0---0-0-----------1--1--1111-------|


G|----------------------------------------------------------|
D|-------------7-----5-----------6--------------------------|
A|-------5-----------------7-----------8--------------------|
D|-0-000---0-0---0-0---0-0---0-0---0-0---0-0-3-5-6----------|


G|----------------------------------------------------------|
D|-------------7-----5--------------------------------------|
A|-------5--------------------------------------------------|
D|-0-000---0-0---0-0---0-0---0000--8-8-00-77-10-------------|


G|----------------------------------------------------------|
D|-------------7-----5-----------6--------------------------|
A|-------5-----------------7-----------8--------------------|
D|-0-000---0-0---0-0---0-0---0-0---0-0---0-0-3-5-6----------|

G|----------------------------------------------------------|
D|-------------7-----5-----------6--------------------------|
A|-------5-----------------7--------------------------------|
D|-0-000---0-0---0-0---0-0---0-0-----------1--1--1111-------|


G|----------------------------------------------------------|
D|-------------7-----5-----------6--------------------------|
A|-------5-----------------7-----------8--------------------|
D|-0-000---0-0---0-0---0-0---0-0---0-0---0-0-3-5-6----------|


G|----------------------------------------------------------|
D|-------------7-----5--------------------------------------|
A|-------5--------------------------------------------------|
D|-0-000---0-0---0-0---0-0---0000--8-8-00-77-10-------------|



Riff 2:
G|----------------------------------------------------------|
D|----------------------------------------------------------|
A|-5-555-8-5-5-8-5-5-8h9p8p6--------------------------------|
D|---------------------------0-8-8--0-0-7-7-----------------|

G|----------------------------------------------------------|
D|----------------------------------------------------------|
A|-5-555-8-5-5-8-5-5-8h9p8p6--------------------------------|
D|---------------------------0-2-2--0-0-3-3-----------------|

G|----------------------------------------------------------|
D|----------------------------------------------------------|
A|-5-555-8-5-5-8-5-5-8h9p8p6--------------------------------|
D|---------------------------0-8-8--0-0-7-7-----------------|

G|----------------------------------------------------------|
D|----------------------------------------------------5-4---|
A|-5-555-8-5-5-8-5-5-8h9p8p6-0-8-8--0-0-7-7------3-3------6-|
D|---------------------------0-8-8--0-0-7-7--0-0-3-3--------|



Riff 3:
G|----------------------------------------------------------|
D|----------------------------------------------------------|
A|----------------------------------------------------------|
D|-0-0-0-1p0-0-1p0-0-1p0-0-4p0-0-4p0-0-4p0-0-4p0-0-3p0-0----|

G|----------------------------------------------------------|
D|----------------------------------------------------------|
A|----------------------------------------------------------|
D|-3p0-0-3p0-0-3p0-0-3p0-0-3p0-0-3p0-3-5h6~-----------------|


G|----------------------------------------------------------|
D|----------------------------------------------------------|
A|----------------------------------------------------------|
D|-0-0-0-1p0-0-1p0-0-1p0-0-4p0-0-4p0-0-4p0-0-4p0-0-3p0-0----|

G|----------------------------------------------------------|
D|----------------------------------------------------------|
A|----------------------------------------------------------|
D|-3p0-0-3p0-0-3p0-0-3p0-0-3p0-0-3p0-3-5h6~-----------------|


G|----------------------------------------------------------|
D|----------------------------------------------------------|
A|----------------------------------------------------------|
D|-0-0-0-1p0-0-1p0-0-1p0-0-4p0-0-4p0-0-4p0-0-4p0-0-3p0-0----|

G|----------------------------------------------------------|
D|----------------------------------------------------------|
A|----------------------------------------------------------|
D|-3p0-0-3p0-0-3p0-0-3p0-0-3p0-0-3p0-3-5h6~-----------------|


G|----------------------------------------------------------|
D|----------------------------------------------------------|
A|----------------------------------------------------------|
D|-0-0-0-1p0-0-1p0-0-1p0-0-4p0-0-4p0-0-4p0-0-4p0-0-3p0-0----|

G|----------------------------------------------------------|
D|-----------------------------------------/5-4-------------|
A|----------------------------------------------6-----------|
D|-3p0-0-3p0-0-3p0-0-3p0-0-3p0-0-3p0-0000-------------------|



Riff 4:
G|----------------------------------------------------------|
D|----------------------------------------------------------|
A|----------------------------------------------------------|
D|-0-0-0-1p0-0-0-0-0-0-1-0-5-0-4-0-0-0-0-0-0-0-1-0-5-0-4----|


G|----------------------------------------------------------|
D|----------------------------------------------------------|
A|----------------------------------------------------------|
D|-0-0-0-0-0-0-0-1-0-5-0-4-0-0-0-0-2-3-0-6~-----------------| X 2

Riff 5:

G|----------------------------------------------------------|
D|----------------------------------------------------------|
A|----------------------------------------------------------|
D|-2-2-2-3p2-2-2-2-2-2-3p2-7p3-6p2-2-2-2-2-2-2-3p2-7p3-6----|


G|----------------------------------------------------------|
D|----------------------------------------------------------|
A|----------------------------------------------------------|
D|-2-2-2-2-2-2-2-3p2-7p2-6-2-2-2-2h3p2-1~-------------------|

Riff 6:
(follow the rhythm of the bass drums)

G|----------------------------------------------------------|
D|----------------------------------------------------------|
A|----------------------------------------------------------|
D|-0-0--0000--0-----0-0-000------0-----0-0---0000-----------|

G|----------------------------------------------------------|
D|----------------------------------------------------------|
A|----------------------------------------------------------|
D|-8-888------8-----8-8-888-----8------8-----8888-----------|


G|----------------------------------------------------------|
D|----------------------------------------------------------|
A|----------------------------------------------------------|
D|-0-0--0000--0-----0-0-000------0-----0-0---0000-----------|

G|----------------------------------------------------------|
D|----------------------------------------------------------|
A|-----------------------------------1----------------------|
D|-8-888------8-----8-8-888--888 ------3--1-----------------|



Riff 6:
G|----------------------------------------------------------|
D|-------------7-----5-----------6--------------------------|
A|-------5-----------------7-----------8--------------------|
D|-0-000---0-0---0-0---0-0---0-0---0-0---0-0-3-5-6----------|

G|----------------------------------------------------------|
D|----------------------------------------------------------|
A|----------------------------------------------------------|
D|-5-5555555-----------3-333------2-3-2-5-------------------|


G|----------------------------------------------------------|
D|-------------7-----5-----------6--------------------------|
A|-------5-----------------7-----------8--------------------|
D|-0-000---0-0---0-0---0-0---0-0---0-0---0-0-3-5-6----------|

G|----------------------------------------------------------|
D|----------------------------------------------------------|
A|----------------------------------------------------------|
D|-5-5555555-----------3-333------2-3-2-5-------------------|


G|----------------------------------------------------------|
D|-------------7-----5-----------6--------------------------|
A|-------5-----------------7-----------8--------------------|
D|-0-000---0-0---0-0---0-0---0-0---0-0---0-0-3-5-6----------|

G|----------------------------------------------------------|
D|----------------------------------------------------------|
A|----------------------------------------------------------|
D|-5-5555555-----------3-333------2-3-2-5-------------------|


G|----------------------------------------------------------|
D|-------------7-----5-----------6--------------------------|
A|-------5-----------------7-----------8--------------------|
D|-0-000---0-0---0-0---0-0---0-0---0-0---0-0-3-5-6----------|

G|----------------------------------------------------------|
D|----------------------------------------------------------|
A|----------------------------------------------------------|
D|-5-5555555-----------3-333------2-3-2-5-------------------|



Riff 7:

(follow the rhythm of the bass drums)

G|----------------------------------------------------------|
D|----------------------------------------------------------|
A|----------------------------------------------------------|
D|-0-0--0000--0-----0-0-000------0-----0-0---0000-----------|

G|----------------------------------------------------------|
D|----------------------------------------------------------|
A|----------------------------------------------------------|
D|-8-888------8-----8-8-888-----8------8-----8888-----------|


G|----------------------------------------------------------|
D|----------------------------------------------------------|
A|----------------------------------------------------------|
D|-0-0--0000--0-----0-0-000------0-----0-0---0000-----------|


Riff 8:

G|----------------------------------------------------------|
D|----------------------------------------------------------|
A|----------------------------------------------------------|
D|-0-0-0-1p0-0-1p0-0-1p0-0-4p0-0-4p0-0-4p0-0-4p0-0-3p0-0----|

G|----------------------------------------------------------|
D|----------------------------------------------------------|
A|----------------------------------------------------------|
D|-3p0-0-3p0-0-3p0-0-3p0-0-3p0-0-3p0-3-5h6~-----------------|


G|----------------------------------------------------------|
D|----------------------------------------------------------|
A|----------------------------------------------------------|
D|-0-0-0-1p0-0-1p0-0-1p0-0-4p0-0-4p0-0-4p0-0-4p0-0-3p0-0----|

G|----------------------------------------------------------|
D|----------------------------------------------------------|
A|----------------------------------------------------------|
D|-3p0-0-3p0-0-3p0-0-3p0-0-3p0-0-3p0-3-5h6~-----------------|


G|----------------------------------------------------------|
D|----------------------------------------------------------|
A|----------------------------------------------------------|
D|-0-0-0-1p0-0-1p0-0-1p0-0-4p0-0-4p0-0-4p0-0-4p0-0-3p0-0----|

G|----------------------------------------------------------|
D|----------------------------------------------------------|
A|----------------------------------------------------------|
D|-3p0-0-3p0-0-3p0-0-3p0-0-3p0-0-3p0-3-5h6~-----------------|


G|----------------------------------------------------------|
D|----------------------------------------------------------|
A|----------------------------------------------------------|
D|-0-0-0-1p0-0-1p0-0-1p0-0-4p0-0-4p0-0-4p0-0-4p0-0-3p0-0----|


G|----------------------------------------------------------|
D|----------------------------------------------------------|
A|---------------------------------1------------------------|
D|-3p0-0-3p0-0-3p0-0-3p0-0-3p0-0------3--1------------------|



Riff 9


G|----------------------------------------------------------|
D|----------------------------------------------------------|
A|----------------------------------------------------------|
D|-0-0h1-0-0-8888-0-0h1-00--77------------------------------|


G|----------------------------------------------------------|
D|----------------------------------------------------------|
A|----------------------------------------------------------|
D|-0-1-0-1-0-1-0-1-0-1-0-1-0-1-0-1-0-1-0-4------------------|


G|----------------------------------------------------------|
D|----------------------------------------------------------|
A|----------------------------------------------------------|
D|-0-0h1-0-0-8888-0-0h1-00--77------------------------------|


G|----------------------------------------------------------|
D|----------------------------------------------------------|
A|-------------------------------------6--3-----------------|
D|-0-1-0-1-0-1-0-1-0-1-0-1-0-1-0-1-0-1----------------------|


G|----------------------------------------------------------|
D|----------------------------------------------------------|
A|----------------------------------------------------------|
D|-0-0h1-0-0-8888-0-0h1-00--77------------------------------|


G|----------------------------------------------------------|
D|----------------------------------------------------------|
A|----------------------------------------------------------|
D|-0-1-0-1-0-1-0-1-0-1-0-1-0-1-0-1-0-1-0-4------------------|


G|----------------------------------------------------------|
D|----------------------------------------------------------|
A|----------------------------------------------------------|
D|-0-0h1-0-0-8888-0-0h1-00--77------------------------------|

G|----------------------------------------------------------|
D|----------------------------------------------------------|
A|-------------------------------------6--3-----------------|
D|-0-1-0-1-0-1-0-1-0-1-0-1-0-1-0-1-0-1----------------------|



Final Riff: 

G|----------------------------------------------------------|
D|----------------------------------------------------------|
A|----------------------------------------------------------|
D|-0-1-0-1-0-1-0-1-0-1-0-1-0-1-0-1-0-1-0-4------------------|

G|----------------------------------------------------------|
D|----------------------------------------------------------|
A|---------------------------------------6-3----------------|
D|-0-1-0-1-0-1-0-1-0-1-0-1-0-1-0-1-0-1-0--------------------|


G|----------------------------------------------------------|
D|----------------------------------------------------------|
A|----------------------------------------------------------|
D|-0-1-0-1-0-1-0-1-0-1-0-1-0-1-0-1-0-1-0-4------------------|

G|----------------------------------------------------------|
D|----------------------------------------------------------|
A|---------------------------------------6-3----------------|
D|-0-1-0-1-0-1-0-1-0-1-0-1-0-1-0-1-0-1-0--------------------|


G|----------------------------------------------------------|
D|----------------------------------------------------------|
A|----------------------------------------------------------|
D|-0-1-0-1-0-1-0-1-0-1-0-1-0-1-0-1-0-1-0-4------------------|

G|----------------------------------------------------------|
D|----------------------------------------------------------|
A|---------------------------------------6-3----------------|
D|-0-1-0-1-0-1-0-1-0-1-0-1-0-1-0-1-0-1-0--------------------|


G|----------------------------------------------------------|
D|----------------------------------------------------------|
A|----------------------------------------------------------|
D|-0-1-0-1-0-1-0-1-0-1-0-1-0-1-0-1-0-1-0-4------------------|

G|----------------------------------------------------------|
D|----------------------------------------------------------|
A|---------------------------------------6-3----------------|
D|-0-1-0-1-0-1-0-1-0-1-0-1-0-1-0-1-0-1-0--------------------|




| /  slide up
| \  slide down
| h  hammer-on
| p  pull-off
| ~  vibrato
| +  harmonic
| x  Mute note
===============================================================================

            
            
Suggest correction
Creating personal tab
Creating personal tab
You can edit any tab online and save it as your Personal.

You can edit, replace or remove any tab part or add personal notes – all changes will be seen only by you.

Personal tabs can be accessed anytime from any device, even offline.
Learn more »
Give kudos to tab author, rate the tab!
1 2 3 4 5
comments
print report bad tab
1 comment total.
0 reply
joshhelton27 10 May 17, 2012 02:31 PM

im pretty sure that the bass part actually isn't
G|----------------------------------------------------------|
D|-------------7-----5-----------6--------------------------|
A|-------5-----------------7-----------8--------------------|
D|-0-000---0-0--0-0---0-0---0-0---0-0---0-0-3-5-6--------|

It's
G|----------------------------------------------------------|
D|----------------------------------------------------------|
A|-------5--------------------------------------------------|
D|-0-000---0-0-0-7-0-0-0-1,2,1,0----6-----------------------|
Just my thought on it, I know it looks and may even sound wrong to some but i slowen the song down a lot and listen very closely.

guest
You may want to rate the tab now too:
select rating
Wanna post a correction for this tab? Suggest correction