Oops, an error
Loading. Please wait.

Blood Of The Scribe tab

version 2
version 2

Whole song

5,730 views 6 this week
no commentswrite comment
1 2 3 4 5
x 4
add to favorites
×
Save as Personal and add changes to this tab that will be seen only by you. Learn more ›
×
You can save this tab as Personal to edit and correct it or add notes. All changes will be seen only by you. Learn more »
launch autoscroll
font size
0
reset
how to read this tab
guitar tuner
edit
Autoscroll
slow
fast
+/-
esc
set tempo
stop
===============================================================================
                             Lamb Of God - Blood of the Scribe
===============================================================================

Artist: Lamb Of God
Album: Ashes of the Wake, 2004
Song Title: "Blood of the Scribe"
Tuning: Drop D (low to high) D-A-D-G-B-e
Transcripted By: Jerbaul

This tab may seem a little like too much because I couldn't 
think of a better way to organize it all. Just read it out.
Everything is in order, just keep scrolling. Enjoy! :)

============================================================
>>Intro
e|---------------------------------------------------------| 
B|---------------------------------------------------------|
G|---------------------------------------------------------|
D|---------------------------------------------------------|
A|---------------------------------------------------------| 
D|--0-000-12-0-0-19-0-0-17-0-0-14-0-0-18-0-0-15-0-0-3-5-6--|
    . ...    . .    . .    . .    . .    . .    . .

e|--------------------------------------------------------| 
B|--------------------------------------------------------|
G|--------------------------------------------------------|
D|-------------------------------------------------3---1--|
A|--------------------------------------------------------| 
D|--0-000-12-0-0-19-0-0-17-0-0-14-0-0-18-0-0-1-111---1----|
    . ...    . .    . .    . .    . .    . . . ...

e|---------------------------------------------------------| 
B|---------------------------------------------------------|
G|---------------------------------------------------------|
D|---------------------------------------------------------|
A|---------------------------------------------------------| 
D|--0-000-12-0-0-19-0-0-17-0-0-14-0-0-18-0-0-15-0-0-3-5-6--|
    . ...    . .    . .    . .    . .    . .    . .

e|---------------------------------------------|
B|---------------------------------------------|
G|---------------------------------------------|
D|---------------------------------------------|
A|------------------------------8-8-------7-7--|
D|--0-000-12-0-0-19-0-0-17-0-0--8-8--0-0--7-7--|
    . ...    . .    . .    . .       . .

e|---------------------------------------------------------| 
B|---------------------------------------------------------|
G|---------------------------------------------------------|
D|---------------------------------------------------------|
A|---------------------------------------------------------| 
D|--0-000-12-0-0-19-0-0-17-0-0-14-0-0-18-0-0-15-0-0-3-5-6--|
    . ...    . .    . .    . .    . .    . .    . .

e|--------------------------------------------------------| 
B|--------------------------------------------------------|
G|--------------------------------------------------------|
D|-------------------------------------------------3---1--|
A|--------------------------------------------------------| 
D|--0-000-12-0-0-19-0-0-17-0-0-14-0-0-18-0-0-1-111---1----|
    . ...    . .    . .    . .    . .    . . . ...

e|---------------------------------------------------------| 
B|---------------------------------------------------------|
G|---------------------------------------------------------|
D|---------------------------------------------------------|
A|---------------------------------------------------------| 
D|--0-000-12-0-0-19-0-0-17-0-0-14-0-0-18-0-0-15-0-0-3-5-6--|
    . ...    . .    . .    . .    . .    . .    . .

e|----------------------------------------------|
B|----------------------------------------------|
G|----------------------------------------------|
D|----------------------------------------------|
A|----------------------------------------------|
D|--0-000-12-0-0-19-0-0-17-0-0--8--12~--7--14~--|
    . ...    . .    . .    . .     

=================================================
>>Verse
e|----------------------------------------------|
B|----------------------------------------------|
G|----------------------------------------------|
D|--------3-----3-----3h4p3---------------------|
A|--5-555---5-5---5-5-------5-5--8-8-------7-7--|
D|-------------------------------8-8--7-7--7-7--|
    . ...   . .   . .       . .       . .

e|----------------------------------------------|
B|----------------------------------------------|
G|----------------------------------------------|
D|--------3-----3-----3h4p3---------------------|
A|--5-555---5-5---5-5-------5-5--2-2-------3-3--|
D|-------------------------------2-2--3-3--3-3--|
    . ...   . .   . .       . .       . .

e|-----------------------------------------------------------------------|
B|-----------------------------------------------------------------------|
G|-----------------------------------------------------------------------|
D|--------3-----3-----3h4p3----------------------------------------------|
A|--5-555---5-5---5-5-------5-5--8-8-------7-7-------3-3-----------------|
D|-------------------------------8-8--7-7--7-7--3-3--3-3--3/17--16--13~--|
    . ...   . .   . .       . .       . .       . .       

=======================================================
>>Interlude (this section 3x)
>>      (3x)       (4x)       (6x)
e|-----||---------||---------||---------||------------|
B|-----||---------||---------||---------||------------|
G|-----||---------||---------||---------||------------|
D|-----||---------||---------||---------||------------|
A|-----||---------||---------||---------||------------|
D|--0--||--0-1p0--||--0-4p0--||--0-3p0--||--0-3-4-6~--|

=======================================================================
>>Interlude Cont.
>>      (3x)       (4x)       (4x)
e|-----||---------||---------||---------||----------------------------|
B|-----||---------||---------||---------||----------------------------|
G|-----||---------||---------||---------||----------------------------|
D|-----||---------||---------||---------||----------------------------|
A|-----||---------||---------||---------||----------------------------|
D|--0--||--0-1p0--||--0-4p0--||--0-3p0--||--000-0-0-0-0-/17--16--13~--|
                                            ... . . . .

==========================================================
>>Interlude Cont. (2x)      (2x)
e|-------------------------||----------------------------|
B|-------------------------||----------------------------|  
G|-------------------------||----------------------------|  
D|-------------------------||----------------------------|  
A|--0-0-0--1p0--0-0-0-0-0--||--1-0-5-0-4--0-0-0-0-0-0-0--|  
D|--0-0-0--1p0--0-0-0-0-0--||--1-0-5-0-4--0-0-0-0-0-0-0--|  
    . . .       . . . . .                 . . . . . . .     
                                                            
e|------------------------------|                           
B|------------------------------|                           
G|------------------------------|                           
D|------------------------------|                           
A|--1-0-5-0-4--0-0-0-0----------|                           
D|--1-0-5-0-4--0-0-0-0--3-4-6~--|
               . . . .

==========================================================
>>Interlude Cont.           (2x)
e|-------------------------||----------------------------|
B|-------------------------||----------------------------|
G|-------------------------||----------------------------|
D|-------------------------||----------------------------|
A|--2-2-2--3p2--2-2-2-2-2--||-------------2-2-2-2-2-2-2--|
D|--2-2-2--3p2--2-2-2-2-2--||--3p2-7p2-6--2-2-2-2-2-2-2--|
    . . .       . . . . .                 . . . . . . .
e|-----------------------------|
B|-----------------------------|
G|-----------------------------|
D|-----------------------------|
A|------------2-2-2------------|
D|--3p2-7p2-6-2-2-2--2-3-2-1~--|
              . . . 

==========================================================
>>Interlude Cont.           (2x)
e|-------------------------||----------------------------|
B|-------------------------||----------------------------|
G|-------------------------||----------------------------|
D|-------------------------||----------------------------|
A|--0-0-0--1p0--0-0-0-0-0--||--1-0-5-0-4--0-0-0-0-0-0-0--|
D|--0-0-0--1p0--0-0-0-0-0--||--1-0-5-0-4--0-0-0-0-0-0-0--|
    . . .       . . . . .                 . . . . . . .
                           
e|------------------------------|
B|------------------------------|
G|------------------------------|
D|------------------------------|
A|--1-0-5-0-4--0-0-0-0----------|
D|--1-0-5-0-4--0-0-0-0--3-4-6*--|
               . . . .

=====================================================================
>>Chorus (2x)
e|------------------------------------------------------------------|
B|------------------------------------------------------------------|
G|------7h10---6h9--------------------------------------------------|
D|--0---0------0-----------15\14---14\12-----11-12-12h14p12p11------|
A|--0----------------------------------------------------------13\--|
D|--0-0------0-----0-0-000-------0-------000------------------------|
             .     . . ...       .       ...

e|------------------------------------------------------|
B|------------------------------------------------------|
G|--------7h10---6h9------------------------------------|
E|---------------------------8\7---7\5---------6h7p6----|
A|-----------------------------------------7-8-------7--|
D|--8-888------8-----8-8-888-----8-----888--------------|
    . ...      .     . . ...     .     ...                  

e|-----------------------------------------------------------------------|
B|-----------------------------------------------------------------------|
G|-----------------------------------------------------------------------|
D|--------12h15---11h14---------15\14---14\12-----11-12-12h14p12p11------|
A|------------------------------------------------------------------13\--|
D|--0-000-------0-------0-0-000-------0-------000------------------------|
    . ...       .       . . ...       .       ...

e|---------------------------------------------------|
B|---------------------------------------------------|
G|--------7h10---6h9---------------------------------|
E|---------------------------8\7---7\5---------------|
A|------------------------------------------8--4--3--|
D|--8-888------8-----8-8-888-----8-----0-0--8--4--3--|
    . ...      .     . . ...     .     . .

=============================================================
>>Bridge (4x)
e|----------------------------------------------------------| 
B|----------------------------------------------------------| 
G|----------------------------------------------------------| 
D|----------------------------------------------------------| 
A|----------------------------------------------------------| 
D|--0-000-12-0-0-19-0-0-17-0-0-14-0-0-18-0-0-15-0-0--3-5-6--| 
    . ...    . .    . .    . .    . .    . .    . .

e|-------------------------------------------------------| 
B|-------------------------------------------------------| 
G|-------------------------------------------------------| 
D|---------------7~------8~------------------------------| 
A|--------7~---------------------------5------3-0-3------| 
D|--5-555----5-5----5-5-----5-5--3-333---3-3--3-0-3--5*--| 
    . ...    . .    . .     . .  . ...   . .  . . .

=====================================================================
>>Chorus (2x)
e|------------------------------------------------------------------|
B|------------------------------------------------------------------|
G|------7h10---6h9--------------------------------------------------|
D|--0---0------0-----------15\14---14\12-----11-12-12h14p12p11------|
A|--0----------------------------------------------------------13\--|
D|--0-0------0-----0-0-000-------0-------000------------------------|
             .     . . ...       .       ...

e|------------------------------------------------------|
B|------------------------------------------------------|
G|--------7h10---6h9------------------------------------|
E|---------------------------8\7---7\5---------6h7p6----|
A|-----------------------------------------7-8-------7--|
D|--8-888------8-----8-8-888-----8-----888--------------|
    . ...      .     . . ...     .     ...                  

e|-----------------------------------------------------------------------|
B|-----------------------------------------------------------------------|
G|-----------------------------------------------------------------------|
D|--------12h15---11h14---------15\14---14\12-----11-12-12h14p12p11------|
A|------------------------------------------------------------------13\--|
D|--0-000-------0-------0-0-000-------0-------000------------------------|
    . ...       .       . . ...       .       ...

e|---------------------------------------------------|
B|---------------------------------------------------|
G|--------7h10---6h9---------------------------------|
E|---------------------------8\7---7\5---------------|
A|------------------------------------------8--4--3--|
D|--8-888------8-----8-8-888-----8-----0-0--8--4--3--|
    . ...      .     . . ...     .     . .

=======================================================
>>Interlude (2x)
>>      (3x)       (4x)       (6x)
e|-----||---------||---------||---------||------------|
B|-----||---------||---------||---------||------------|
G|-----||---------||---------||---------||------------|
D|-----||---------||---------||---------||------------|
A|-----||---------||---------||---------||------------|
D|--0--||--0-1p0--||--0-4p0--||--0-3p0--||--0-3-4-6~--|

==================================================
>>Verse (2x)
e|-----------------------------------------------|
B|-----------------------------------------------|
G|-----------------------------------------------|
D|-----------------------------------------------|
A|-----------------------------------------------|
D|--0-0-0-1-0-0-1-0-0-1-0-0-4-0-0-4-0-0-4-0-0-4--|
    . . . . . . . . . . . . . . . . . . . . . .

>>                            (1st Ending)              
e|---------------------------||-----------------------------|
B|---------------------------||-----------------------------|
G|---------------------------||-----------------------------|
D|---------------------------||-----------------------------|
A|---------------------------||-----------------------------|
D|--0-0-3-0-0-3-0-0-3-0-0-3--||--0-0-3-0-0-3-0-0--0-3-4-7*--|
    . . . . . . . . . . . .      . . . . . . . .  . . .

>>(2nd Ending) 
e|---------------------------------------|
B|---------------------------------------|
G|---------------------------------------|
D|-----------12*-------------------------|
A|-----12-13-----13-12-------------------|
D|--13-----------------17-16-13--8~--4~--|

==============================================
>>Outro (2x)
e|-------------------------------------------|
B|-------------------------------------------|
G|------------15--15----------------14--14---|
D|-------------------------------------------|
A|-------------------------------------------|
D|--000-0--0----------0-0-000-0--0-----------|
    ... .  .          . . ... .  .

e|-------------------------------------------------|
B|-------------------------------------------------|
G|-------------------------------------------------|
D|-------------------------------------------------|
A|--0-1-0-1-0-1--0-1-0-1-0-1-0-1--0-1-0-1-0--4--4--|
D|--0-1-0-1-0-1--0-1-0-1-0-1-0-1--0-1-0-1-0--4--4--|
    . . . . . .  . . . . . . . .  . . . . .  

e|-------------------------------------------|
B|-------------------------------------------|
G|------------15--15----------------14--14---|
D|-------------------------------------------|
A|-------------------------------------------|
D|--000-0--0----------0-0-000-0--0-----------|
    ... .  .          . . ... .  .

e|---------------------------------------------------|
B|---------------------------------------------------|
G|---------------------------------------------------|
D|---------------------------------------------------|
A|--0-1-0-1-0-1--0-1-0-1-0-1-0-1--0-1-0-1-0--13--10--|
D|--0-1-0-1-0-1--0-1-0-1-0-1-0-1--0-1-0-1-0--13--10--|
    . . . . . .  . . . . . . . .  . . . . .  

======================================================
>>Outro Cont. (2x)
e|---------------------------------------------------|
B|---------------------------------------------------|
G|---------------------------------------------------|
D|---------------------------------------------------|
A|---------------------------------------------4--4--|
D|--0-1-0-1-0-1---0-1-0-1-0-1-0-1---0-1-0-1-0--4--4--|

e|-----------------------------------------------------|
B|-----------------------------------------------------|
G|-----------------------------------------------------|
D|-----------------------------------------------------|
A|---------------------------------------------13--10--|
D|--0-1-0-1-0-1---0-1-0-1-0-1-0-1--0-1-0-1-0---13--10--|

====================================================
>>Outro Cont. (2x)
e|-------------------------------------------------|
B|-------------------------------------------------|
G|-------------------------------------------------|
D|-------------------------------------------------|
A|--0-1-0-1-0-1--0-1-0-1-0-1-0-1--0-1-0-1-0--4--4--|
D|--0-1-0-1-0-1--0-1-0-1-0-1-0-1--0-1-0-1-0--4--4--|
    . . . . . .  . . . . . . . .  . . . . .  

e|------------------------------------------------------|
B|------------------------------------------------------|
G|------------------------------------------------------|
D|------------------------------------------------------|
A|--0-1-0-1-0-1--0-1-0-1-0-1-0-1--0-1-0-1-0--13--10--0--|
D|--0-1-0-1-0-1--0-1-0-1-0-1-0-1--0-1-0-1-0--13--10--0--|
    . . . . . .  . . . . . . . .  . . . . .          .
=========================================================
| /  slide up
| \  slide down
| h  hammer-on
| p  pull-off
| ~  vibrato
| *  pinch harmonic
| .  palm mute
=========================================================

            
            
Suggest correction
Creating personal tab
Creating personal tab
You can edit any tab online and save it as your Personal.

You can edit, replace or remove any tab part or add personal notes – all changes will be seen only by you.

Personal tabs can be accessed anytime from any device, even offline.
Learn more »
comments
print report bad tab
guest
You may want to rate the tab now too:
select rating
Wanna post a correction for this tab? Suggest correction