Oops, an error
Loading. Please wait.

Boot Scraper tab

version 2
version 2

Whole song

Interactive

2,414 views 3 this week
no commentswrite comment
1 2 3 4 5
x 4
add to favorites
×
Save as Personal and add changes to this tab that will be seen only by you. Learn more ›
×
You can save this tab as Personal to edit and correct it or add notes. All changes will be seen only by you. Learn more »
launch autoscroll
font size
0
reset
how to read this tab
guitar tuner
backing track
0:00
0:00
edit
Autoscroll
slow
fast
+/-
esc
set tempo
stop
                LAMB OF GOD - BOOTSCRAPER!!!





E|--------------------------------------------------------|
B|--------------------------------------------------------|
G|--------------------------------------------------------|
D|--------------------------------------------------------|
A|--------------------------------------------------------|
D|-000--0--0--000--000000000000--0--0--000--000000000000--|
   ---  -  -  ---  ------------  -  -  ---  ------------

E|---------------------------------------------------|
B|---------------------------------------------------|
G|---------------------------------------------------|
D|---------------------------------------------------|
A|---------------------------------------------------|
D|-0--0--000--000000000000--0--0--000--000000000000--|
   -  -  ---  ------------  -  -  ---  ------------

E|---------------------------------------------------|
B|---------------------------------------------------|
G|---------------------------------------------------|
D|---------------------------------------------------|
A|---------------------------------------------------|
D|-0--0--000--000000000000--0--0--000--000000000000--|
   -  -  ---  ------------  -  -  ---  ------------

E|--------------------------------------------------|
B|--------------------------------------------------|
G|--------------------------------5--5--5//8--8--8--|
D|--------------------------------5--5--5//8--8--8--|
A|--------------------------------3--3--3//6--6--6--|
D|-0--0--000--000000000000--0--0--------------------|
   -  -  ---  ------------  -  -  

E|--------------------------------------------------------|
B|--------------------------------------------------------|
G|--------------------------------------------------------|
D|--------------------------------------------------------|
A|--------------------------------------------------------|
D|-000--0--0--000--000000000000--0--0--000--000000000000--|
   ---  -  -  ---  ------------  -  -  ---  ------------

E|---------------------------------------------------|
B|---------------------------------------------------|
G|---------------------------------------------------|
D|---------------------------------------------------|
A|---------------------------------------------------|
D|-0--0--000--000000000000--0--0--000--000000000000--|
   -  -  ---  ------------  -  -  ---  ------------

E|---------------------------------------------------|
B|---------------------------------------------------|
G|---------------------------------------------------|
D|---------------------------------------------------|
A|---------------------------------------------------|
D|-0--0--000--000000000000--0--0--000--000000000000--|
   -  -  ---  ------------  -  -  ---  ------------

E|--------------------------------------------------|
B|--------------------------------------------------|
G|--------------------------------5--5--5//8--8--8--|
D|--------------------------------5--5--5//8--8--8--|
A|--------------------------------3--3--3//6--6--6--|
D|-0--0--000--000000000000--0--0--------------------|
   -  -  ---  ------------  -  -

E|--------------------------------------------------|
B|--------------------------------------------------|
G|--------------------------------------------------|
D|-----7---b8r-----7---b8r-----7---b8r-----7---b8r--|
A|--------------------------------------------------|
D|-0-0---0-----0-0---0-----0-0---0-----0-0---0------|
   - -   -     - -   -     - -   -     - -   -       

E|---------------------------------------------------|
B|---------------------------------------------------|
G|---------------------------------------------------|
D|-----6---7-------6---7--------10---8--------7---5--|
A|---------------------------------------------------|
D|-000---0---0-000---0---0--888----8---8--555---5----|
   ---   -   - ---   -   -  ---    -   -  ---   -

E|--------------------------------------------------|
B|--------------------------------------------------|
G|-----------------------------------------7--------|
D|-----7---b8r-----7---b8r-----7---b8r---------b8r--|
A|--------------------------------------------------|
D|-0-0---0-----0-0---0-----0-0---0-----0-0---0------|
   - -   -     - -   -     - -   -     - -   -

E|---------------------------------------------------------|
B|---------------------------------------------------------|
G|---------------------------------------5--5--5//8--8--8--|
D|-----6---7-------6---7-----------------5--5--5//8--8--8--|
A|------------------------------3---1----3--3--5//6--6--6--|
D|-000---0---0-000---0---0--111---1---1--------------------|
   ---   -   - ---   -      ---   -   -

E|--------------------------------------------------|
B|--------------------------------------------------|
G|--------------------------------------------------|
D|-----7---b8r-----7---b8r-----7---b8r-----7---b8r--|
A|--------------------------------------------------|
D|-0-0---0-----0-0---0-----0-0---0-----0-0---0------|
   - -   -     - -   -     - -   -     - -   -   

E|---------------------------------------------------|
B|---------------------------------------------------|
G|---------------------------------------------------|
D|-----6---7-------6---7--------10---8--------7---5--|
A|---------------------------------------------------|
D|-000---0---0-000---0---0--888----8---8--555---5----|
   ---   -   - ---   -   -  ---    -   -  ---   -    

E|--------------------------------------------------|
B|--------------------------------------------------|
G|-----------------------------------------7--------|
D|-----7---b8r-----7---b8r-----7---b8r---------b8r--|
A|--------------------------------------------------|
D|-0-0---0-----0-0---0-----0-0---0-----0-0---0------|
   - -   -     - -   -     - -   -     - -   -

E|---------------------------------------------------------|
B|---------------------------------------------------------|
G|---------------------------------------5--5--5//8--8--8--|
D|-----6---7-------6---7-----------------5--5--5//8--8--8--|
A|------------------------------3---1----3--3--5//6--6--6--|
D|-000---0---0-000---0---0--111---1---1--------------------|
   ---   -   - ---   -      ---   -   -

E|-----------------|
B|-----------------|
G|-----------------|
D|-0--3/5-5-6-6-6--|
A|-0--3/5-5-6-6-6--|
D|-0--3/5-5-6-6-6--|
   -

E|--------------------------------------------------|
B|--------------------------------------------------|
G|--------------------------------------------------|
D|--------------------------------------------------|
A|--------------------------------------------------|
D|-000-0-000-0-000-0-000-0-000-0-000-0-000-0-000-0--|
   --- - --- - --- - --- - --- - --- - --- - --- - 

E|--------------------------------------------------|
B|--------------------------------------------------|
G|--------------------------------------------------|
D|--------------------------------------------------|
A|--------------------------------------------------|
D|-000-0-000-0-000-0-000-0-000-0-000-0-000-0-000-0--|
   --- - --- - --- - --- - --- - --- - --- - --- -

E|---------------------------------------------------|
B|---------------------------------------------------|
G|-------5---5-------------------5---5---5-----------|
D|-------5---5-------------------5---5---5--6-6-6-6--|
A|-------3---3-------------------3---3---3--6-6-6-6--|
D|-000-0---0---0-0-0-0-0-0-000-0---0---0----6-6-6-6--|
   --- -   -   - - - - - - --- -   -   -      

E|------------------------------------------------------|
B|------------------------------------------------------|
G|-------5---5------------------------------------------|
D|-------5---5-------------------5\4--------------------|
A|-------3---3---------------5/6-----------3-5-6-5-3-5--|
D|-000-0---0---0-0-0-0-0-0-0---------0-0-0--------------|
   --- -   -   - - - - - - -         - - - 


E|---------------------------------------------------|
B|---------------------------------------------------|
G|-------5---5-------------------5---5---5-----------|
D|-------5---5-------------------5---5---5--6-6-6-6--|
A|-------3---3-------------------3---3---3--6-6-6-6--|
D|-000-0---0---0-0-0-0-0-0-000-0---0---0----6-6-6-6--|
   --- -   -   - - - - - - --- -   -   -      

E|--------------------------------------------------|
B|--------------------------------------------------|
G|-------5---5---------------------------5---4-4-4--|
D|-------5---5---------------------------5---4-4-4--|
A|-------3---3---------------------------3---2-2-2--|
D|-000-0---0---0-0-0-0-0-0-0-7-8-7-000-0---0--------|
   --- -   -   - - - - - -         --- -   -        

E|---------------------------------------------------|
B|---------------------------------------------------|
G|-------5---5-------------------5---5---5-----------|
D|-------5---5-------------------5---5---5--6-6-6-6--|
A|-------3---3-------------------3---3---3--6-6-6-6--|
D|-000-0---0---0-0-0-0-0-0-000-0---0---0----6-6-6-6--|
   --- -   -   - - - - - - --- -   -   -      

E|------------------------------------------------------|
B|------------------------------------------------------|
G|-------5---5------------------------------------------|
D|-------5---5-------------------5\4--------------------|
A|-------3---3---------------5/6-----------3-5-6-5-3-5--|
D|-000-0---0---0-0-0-0-0-0-0---------0-0-0--------------|
   --- -   -   - - - - - - -         - - - 

E|---------------------------------------------------|
B|---------------------------------------------------|
G|-------5---5-------------------5---5---5-----------|
D|-------5---5-------------------5---5---5--6-6-6-6--|
A|-------3---3-------------------3---3---3--6-6-6-6--|
D|-000-0---0---0-0-0-0-0-0-000-0---0---0----6-6-6-6--|
   --- -   -   - - - - - - --- -   -   -      

E|--------------------------------------------------|
B|--------------------------------------------------|
G|-------5---5---------------------------5---4-4-4--|
D|-------5---5---------------------------5---4-4-4--|
A|-------3---3---------------------------3---2-2-2--|
D|-000-0---0---0-0-0-0-0-0-0-7-8-7-000-0---0--------|
   --- -   -   - - - - - -         --- -   -        

E|-----------------------------|
B|-----------------------------|
G|-----------------------------|
D|-----------------------------|
A|-----------------------------|
D|--333333333333/666666666666--|
    ------------ ------------

E|--------------------------|
B|--------------------------|
G|--------------------------|
D|---3/2---2----------------|
A|-5-----4---4-0-0-0-0-0-0--|
D|-------------0-0-0-0-0-0--|
               - - - - - - 

E|--------------------------|
B|--------------------------|
G|--------------------------|
D|---3/2---2----------------|
A|-5-----4---4-2-2-3-3-1-1--|
D|-------------2-2-3-3-1-1--|
               - - - - - - 

E|--------------------------|
B|--------------------------|
G|--------------------------|
D|---3/2---2----------------|
A|-5-----4---4-0-0-0-0-0-0--|
D|-------------0-0-0-0-0-0--|
               - - - - - - 

E|--------------------------|
B|--------------------------|
G|--------------------------|
D|--------------------------|
A|-----4---b5r-0-0-0-0-0-0--|
D|-3-7---0-----0-0-0-0-0-0--|
               - - - - - -  

E|--------------------------|
B|--------------------------|
G|--------------------------|
D|---3/2---2----------------|
A|-5-----4---4-0-0-0-0-0-0--|
D|-------------0-0-0-0-0-0--|
               - - - - - -  
      
E|--------------------------|
B|--------------------------|
G|--------------------------|
D|---3/2---2----------------|
A|-5-----4---4-2-2-3-3-1-1--|
D|-------------2-2-3-3-1-1--|
               - - - - - - 

E|--------------------------|
B|--------------------------|
G|--------------------------|
D|---3/2---2----------------|
A|-5-----4---4-0-0-0-0-0-0--|
D|-------------0-0-0-0-0-0--|
               - - - - - - 

E|--------------------------|
B|--------------------------|
G|--------------------------|
D|--------------------------|
A|-----4---b5r-0-0-0-0-0-0--|
D|-3-7---0-----0-0-0-0-0-0--|
               - - - - - -  

E|--------------------------|
B|--------------------------|
G|--------------------------|
D|---3/2---2----------------|
A|-5-----4---4-0-0-0-0-0-0--|
D|-------------0-0-0-0-0-0--|
               - - - - - -  

E|--------------------------|
B|--------------------------|
G|--------------------------|
D|---3/2---2----------------|
A|-5-----4---4-2-2-3-3-1-1--|
D|-------------2-2-3-3-1-1--|
               - - - - - - 

E|--------------------------|
B|--------------------------|
G|--------------------------|
D|---3/2---2----------------|
A|-5-----4---4-0-0-0-0-0-0--|
D|-------------0-0-0-0-0-0--|
               - - - - - -  

E|--------------------------|
B|--------------------------|
G|--------------------------|
D|--------------------------|
A|-----4---b5r-0-0-0-0-0-0--|
D|-3-7---0-----0-0-0-0-0-0--|
               - - - - - -  

E|--------------------------|
B|--------------------------|
G|--------------------------|
D|---3/2---2----------------|
A|-5-----4---4-0-0-0-0-0-0--|
D|-------------0-0-0-0-0-0--|
               - - - - - -  

E|--------------------------|
B|--------------------------|
G|--------------------------|
D|---3/2---2----------------|
A|-5-----4---4-2-2-3-3-1-1--|
D|-------------2-2-3-3-1-1--|
               - - - - - - 

E|--------------------------|
B|--------------------------|
G|--------------------------|
D|---3/2---2----------------|
A|-5-----4---4-0-0-0-0-0-0--|
D|-------------0-0-0-0-0-0--|
               - - - - - -  

E|-----------------------|
B|-----------------------|
G|-----------------------|
D|-----------------------|
A|-----4---b5r----0-4----|
D|-3-7---0-----/3-----6--|
                

E|---------------------------------------------------------------------------------|
B|---------------------------------------------------------------------------------|
G|---------------------------------------------------------------------------------|
D|-----------------------------------------------------4/1--1-1-1-1--4p0--0-0-0-0--|
A|-13/12---------12/11---------12-------15-11----------4/1--1-1-1-1--4p0--0-0-0-0--|
D|-------0-0-0-0-------0-0-0-0----15-12-------14-b11r--4/1--1-1-1-1--4p0--0-0-0-0--|
         - - - -       - - - -                              - - - -       - - - -  

E|-------------|
B|-------------|
G|-------------|
D|-------------|
A|-------------|
D|--3333/6666--|
    ---- ----  

E|---------------------------------------------------------------------------------|
B|---------------------------------------------------------------------------------|
G|---------------------------------------------------------------------------------|
D|-----------------------------------------------------4/1--1-1-1-1--4p0--0-0-0-0--|
A|-13/12---------12/11---------12-------15-11----------4/1--1-1-1-1--4p0--0-0-0-0--|
D|-------0-0-0-0-------0-0-0-0----15-12-------14-b11r--4/1--1-1-1-1--4p0--0-0-0-0--|
         - - - -       - - - -                              - - - -       - - - -  

E|-------------|
B|-------------|
G|-------------|
D|-------------|
A|-------------|
D|--3333/6666--|
    ---- ----  

E|---------------------------------------------------------------------------------|
B|---------------------------------------------------------------------------------|
G|---------------------------------------------------------------------------------|
D|-----------------------------------------------------4/1--1-1-1-1--4p0--0-0-0-0--|
A|-13/12---------12/11---------12-------15-11----------4/1--1-1-1-1--4p0--0-0-0-0--|
D|-------0-0-0-0-------0-0-0-0----15-12-------14-b11r--4/1--1-1-1-1--4p0--0-0-0-0--|
         - - - -       - - - -                              - - - -       - - - -  

E|-------------|
B|-------------|
G|-------------|
D|-------------|
A|-------------|
D|--3333/6666--|
    ---- ----  

E|---------------------------------------------------------------------------------|
B|---------------------------------------------------------------------------------|
G|---------------------------------------------------------------------------------|
D|-----------------------------------------------------4/1--1-1-1-1--4p0--0-0-0-0--|
A|-13/12---------12/11---------12-------15-11----------4/1--1-1-1-1--4p0--0-0-0-0--|
D|-------0-0-0-0-------0-0-0-0----15-12-------14-b11r--4/1--1-1-1-1--4p0--0-0-0-0--|
         - - - -       - - - -                              - - - -       - - - -  

E|-------------|
B|-------------|
G|-------------|
D|-------------|
A|-------------|
D|--3333/6666--|
    ---- ----  

E|---------------------------|
B|---------------------------|
G|---------------------------|
D|---------------------------|
A|---------------------------|
D|-1111-1111-1111-1111-11111-|
   ---- ---- ---- ---- -----

E|---------------------------|
B|---------------------------|
G|---------------------------|
D|---------------------------|
A|---------------------------|
D|-1111-1111-1111-1111-11111-|
   ---- ---- ---- ---- -----

E|---------------------------|
B|---------------------------|
G|---------------------------|
D|---------------------------|
A|---------------------------|
D|-1111-1111-1111-1111-11111-|
   ---- ---- ---- ---- -----

E|---------------------------|
B|---------------------------|
G|---------------------------|
D|---------------------------|
A|---------------------------|
D|-1111-1111-1111-1111-11111-|
   ---- ---- ---- ---- -----

E|---------------------------|
B|---------------------------|
G|---------------------------|
D|---------------------------|
A|---------------------------|
D|-1111-1111-1111-1111-11111-|
   ---- ---- ---- ---- -----

E|---------------------------|
B|---------------------------|
G|---------------------------|
D|---------------------------|
A|---------------------------|
D|-1111-1111-1111-1111-11111-|
   ---- ---- ---- ---- -----

E|---------------------------|
B|---------------------------|
G|---------------------------|
D|---------------------------|
A|---------------------------|
D|-1111-1111-1111-1111-11111-|
   ---- ---- ---- ---- -----

E|-----------------------|
B|-----------------------|
G|-----------------------|
D|-----------------------|
A|-----------------------|
D|-1111-1111-1111-1111-1-|
   ---- ---- ---- ---- -

E|--------------------------------------------------------|
B|--------------------------------------------------------|
G|--------------------------------------------------------|
D|--------------------------------------------------------|
A|--------------------------------------------------------|
D|-000--0--0--000--000000000000--0--0--000--000000000000--|
   ---  -  -  ---  ------------  -  -  ---  ------------

E|---------------------------------------------------|
B|---------------------------------------------------|
G|---------------------------------------------------|
D|---------------------------------------------------|
A|---------------------------------------------------|
D|-0--0--000--000000000000--0--0--000--000000000000--|
   -  -  ---  ------------  -  -  ---  ------------

E|---------------------------------------------------|
B|---------------------------------------------------|
G|---------------------------------------------------|
D|---------------------------------------------------|
A|---------------------------------------------------|
D|-0--0--000--000000000000--0--0--000--000000000000--|
   -  -  ---  ------------  -  -  ---  ------------

E|--------------------------------------------------|
B|--------------------------------------------------|
G|--------------------------------5--5--5//8--8--8--|
D|--------------------------------5--5--5//8--8--8--|
A|--------------------------------3--3--3//6--6--6--|
D|-0--0--000--000000000000--0--0--------------------|
   -  -  ---  ------------  -  -  

E|------------------------------------------|
B|------------------------------------------|
G|------------------------------------------|
D|------------------------------------------|
A|-----5-b7r-----5-b7r-----5-b7r-----5-b7r--|
D|-000-------000-------000-------000--------|
   ---       ---       ---       ---        

E|--------------------------------------|
B|--------------------------------------|
G|--------------------------------------|
D|-----------------------6--------------|
A|-----5-8-----5-8-----5----------------|
D|-666-----666-----333-----333-333-111--|
   ---     ---     ---     --- --- --- 

E|------------------------------------------|
B|------------------------------------------|
G|------------------------------------------|
D|------------------------------------------|
A|-----5-b7r-----5-b7r-----5-b7r-----5-b7r--|
D|-000-------000-------000-------000--------|
   ---       ---       ---       ---     

E|--------------------------------------|
B|--------------------------------------|
G|--------------------------------------|
D|-----------------------6--------------|
A|-----5-8-----5-8-----5----------------|
D|-666-----666-----333-----333-333-111--|
   ---     ---     ---     --- --- --- 

E|-------------------------------------------------|
B|-------------------------------------------------|
G|-------------------------------------------------|
D|-------------------------------------------------|
A|-------------------------------------------------|
D|-000-0-000-0-000-0-000-0-000-0-000-0-000-0-000-0-|
   --- - --- - --- - --- - --- - --- - --- - --- - 


E|-------------------------------------------------|
B|-------------------------------------------------|
G|-------------------------------------------------|
D|-------------------------------------------------|
A|-------------------------------------------------|
D|-444-4-444-4-444-4-444-4-111-1-111-1-111-1-111-1-|
   --- - --- - --- - --- - --- - --- - --- - --- -

E|-------------------------------------------------|
B|-------------------------------------------------|
G|-------------------------------------------------|
D|-------------------------------------------------|
A|-------------------------------------------------|
D|-000-0-000-0-000-0-000-0-000-0-000-0-000-0-000-0-|
   --- - --- - --- - --- - --- - --- - --- - --- - 

E|-------------------------------------------------|
B|-------------------------------------------------|
G|-------------------------------------------------|
D|-------------------------------------------------|
A|-------------------------------------------------|
D|-444-4-444-4-444-4-444-4-777-7-777-7-666-6-666-6-|
   --- - --- - --- - --- - --- - --- - --- - --- -

E|-------------------------------------------------|
B|-------------------------------------------------|
G|-------------------------------------------------|
D|-------------------------------------------------|
A|-------------------------------------------------|
D|-000--0--0--000--000000000000--0--0--000--000000-|
   ---  -  -  ---  ------------  -  -  ---  ------

E|------------------------------------------------------|
B|------------------------------------------------------|
G|------------------------------------------------------|
D|------------------------------------------------------|
A|------------------------------------------------------|
D|-10-7-0-10-7-0-10-7-0-10-7-0-9-6-0-9-6-0-8-5-0-8-5-1--|


E|-------------------------------------------------|
B|-------------------------------------------------|
G|-------------------------------------------------|
D|-------------------------------------------------|
A|-------------------------------------------------|
D|-000--0--0--000--000000000000--0--0--000--000000-|
   ---  -  -  ---  ------------  -  -  ---  ------


E|------------------------------------------------------|
B|------------------------------------------------------|
G|------------------------------------------------------|
D|------------------------------------------------------|
A|------------------------------------------------------|
D|-10-7-0-10-7-0-10-7-0-10-7-0-9-6-0-9-6-0-8-5-0-8-5-1--|


E|-------------------------------------------------|
B|-------------------------------------------------|
G|-------------------------------------------------|
D|-------------------------------------------------|
A|-------------------------------------------------|
D|-000--0--0--000--000000000000--0--0--000--000000-|
   ---  -  -  ---  ------------  -  -  ---  ------

E|------------------------------------------------------|
B|------------------------------------------------------|
G|------------------------------------------------------|
D|------------------------------------------------------|
A|------------------------------------------------------|
D|-10-7-0-10-7-0-10-7-0-10-7-0-9-6-0-9-6-0-8-5-0-8-5-1--|


E|-------------------------------------------------|
B|-------------------------------------------------|
G|-------------------------------------------------|
D|-------------------------------------------------|
A|-------------------------------------------------|
D|-000--0--0--000--000000000000--0--0--000--000000-|
   ---  -  -  ---  ------------  -  -  ---  ------

E|---------------------------------------------------------|
B|---------------------------------------------------------|
G|---------------------------------------------------------|
D|---------------------------------------------------------|
A|------------------------------------------------------0--|
D|-10-7-0-10-7-0-10-7-0-10-7-0-9-6-0-9-6-0-8-5-0-8-5-1--0--|
                                                        -
Suggest correction
Creating personal tab
Creating personal tab
You can edit any tab online and save it as your Personal.

You can edit, replace or remove any tab part or add personal notes – all changes will be seen only by you.

Personal tabs can be accessed anytime from any device, even offline.
Learn more »
comments
print report bad tab
guest
You may want to rate the tab now too:
select rating
Wanna post a correction for this tab? Suggest correction