Oops, an error
Loading. Please wait.

Confessional bass

version 1
version 1

Whole song

Interactive

1,324 views 1 this week
1 commentread comment
1 2 3 4 5
2 more votes to show rating
add to favorites
×
Save as Personal and add changes to this tab that will be seen only by you. Learn more ›
×
You can save this tab as Personal to edit and correct it or add notes. All changes will be seen only by you. Learn more »
launch autoscroll
font size
0
reset
guitar tuner
edit
Autoscroll
slow
fast
+/-
esc
set tempo
stop
Author
Difficulty
Confessional
Lamb of God
Tuning D A D G

OK this is my 1st attempt at tabbing a song & I'm pretty sure I've mis-interpreted
in more than one place, but I got sick of looking for a tab of this song so I tried
it myself! Please add any corrections which you may have, they would be much appreciated


Intro riff 0:23
G|------------------------|
D|------------------------|
A|------------------------|
D|-0-0-0-0-0-0-0-0-0-1----|

|-----------------------------------------------| x8
|-----------------------------------------------|
|-----------------------------------------------|
|--0-0-0-0-0-0-0-0-0-1~--0-0-0-0-0-0-0-0-0-1----|

0:47
G|-----------------------------------------------| x12
D|-----------------------------------------------|
A|-------6---6-----------------------------------|
D|-0-0-0---0---8-5-4-0-0-7-8-5-4-----------------|

Verse Riff 1:22 (may have a few notes out!)
G|-----------------------------------------------| x9
D|-----------------------------------------------|
A|-----------------------------------------------|
D|-0000-1-0-2-1-5p4-0-0-0-0-0-0------------------|

Fill 1:49 (not sure about this riff!)
G|-------------------| x8
D|-------------------|
A|-------3-----------|
D|-5-5-5---5p4-4-2-4-|

Fill pt2 2:00 (not sure on this one either!)
G|----------------------------------| x4
D|----------------------------------|
A|----------------------------------|
D|-6-6-6-6-6-6-6-4p3-3-3-5-6-6-6-6--|

Riff 6 2:13
G|----------|
D|----------|
A|----------|
D|-0-0-0----|

Verse Riff 2:16 x9

Then rest till 2:53

Main outro riff, play till end (x24)
G|---------------------------------------------------------------|
D|---------------------------------------------------------------|
A|---------------------------------------------------------------|
D|-2-0-0-0-2-0-0-0-2-0-0-0-5-0----0--2-0-0-0-2-0-0-0-2-0-0-0-5~--|

            
            
Suggest correction
Creating personal tab
Creating personal tab
You can edit any tab online and save it as your Personal.

You can edit, replace or remove any tab part or add personal notes – all changes will be seen only by you.

Personal tabs can be accessed anytime from any device, even offline.
Learn more »
Give kudos to tab author, rate the tab!
1 2 3 4 5
comments
print report bad tab
1 comment total.
+1 reply
bass_emagdnim 200 Jun 28, 2006 11:36 AM

Correction for the last riff, was listening to it a while ago and found it soudned more like this:
G|--------------------------------------------------------|
D|--------------------------------------------------------|
A|--------------------------------------------------------|
D|-3-0-0-0-2-0-0-0-3-0-0-0-6-0----0--3-0-0-0-2-0-0-0-6-~--|

guest
You may want to rate the tab now too:
select rating
Wanna post a correction for this tab? Suggest correction