Oops, an error
Loading. Please wait.

Contractor bass

version 2
version 2

Whole song

Interactive

5,963 views 6 this week
3 commentsread comments
1 2 3 4 5
x 7
add to favorites
×
Save as Personal and add changes to this tab that will be seen only by you. Learn more ›
×
You can save this tab as Personal to edit and correct it or add notes. All changes will be seen only by you. Learn more »
launch autoscroll
font size
0
reset
guitar tuner
backing track
0:00
0:00
edit
Autoscroll
slow
fast
+/-
esc
set tempo
stop
Tuning:DADG

Intro
G|------------------|
D|------------------|
A|------------------| x2
D|-0h22222222222222-|

3rd time: (variation)
G|----------------------------|
D|----------------------------|
A|----------------------------| x1
D|-0H2222222222222332-6-7-6-3-|

intro x2
variation x1

Pre-Chorus
G|--------------------------------------------------------|
D|--------------------------------------------------------|
A|--------------------------------------------------------|
D|-000000000000000000000000000000000-7-6-3-6-5-1----------|

G|----------------------------------------------------------|
D|----------------------------------------------------------|
A|----------------------------------------------------------|
D|-00000000000000000000000000000000-7-6-3-6-5-1-7-6-3-6-5-1-|

Chorus X2
G|------------------------------------|
D|------------------------------------|
A|---------------3-3-3-------3-3------|
D|-0-0-0-0-0-0-0-------1-1-1-----3-1--|

G|---------------------------------------------|
D|---------------------------------------------|
A|-------------3-3-3-------3-3-----------------|
D|-000-000-000-------1-1-1-----3-0-0-0-0-0-0-0-|

G|-------------------------------------------|
D|-------------------------------------------|
A|-3-3-3-------3-3---------------------------|
D|-------1-1-1-----0-0-0-0-0-0-0-7~~~~~~~~~~-|

Repeat everything again from the intro to the chorus.

Breakdown
G|--------------------------------|
D|--------------------------------|
A|--------------------------------|
D|-0~~~~~~~~~~~~~~~~~~~~~~~~~~~---|

G|---------------------------------------------------|
D|---------------------------------------------------|
A|---------------------------------3---------------3-| x2
D|-0-3-1-0-7-6--5----0-5-3-0-1-3-0---0-0-0-0-1-3-0---|

G|-----------------------------------------------------|
D|-----------------------------------------------------|
A|-----------------------------------3---------------3-| x4
D|-0-3-1-0-7-6-00-5----0-5-3-0-1-3-0---0-0-0-0-1-3-0---|

G|-----------------------------------------------------|
D|-----------------------------------------------------|
A|-----------------------------------------------------|
D|-0-3-1-0-7-6~~~~~~~~~~~~~~~~~~~~~~~~~~~~~~~~~~~~~~~~-|

Long scream part after breakdown (ridiculously fast)
G|-------------------------------------------------------------------|
D|-------------------------------------------------------------------|
A|-------------------------------------------------------------------|
D|-0000000001210-0-10-12-0000000012-10-0-10-13-0000000012-10-0-10-15-|

G|-----------------------------------------|
D|-----------------------------------------|
A|-----------------------------------------| whole part x2
D|-7-7-7-6-6-6-3-3-3-6-6-6-5-5-5-1-1-1-----|

Pre-chorus x1
chorus till the end. The rythm of it changes thats the only difference

            
            
Suggest correction
Creating personal tab
Creating personal tab
You can edit any tab online and save it as your Personal.

You can edit, replace or remove any tab part or add personal notes – all changes will be seen only by you.

Personal tabs can be accessed anytime from any device, even offline.
Learn more »
comments
print report bad tab
3 comments total.
0 reply
FiliBassist 10 Feb 01, 2010 08:29 AM

Great tab but i think the bit after the long scream is ment to be played twice or something?

0 reply
KingNothing666 70 Aug 27, 2013 03:30 AM

Are they 12s and 10s at the end or 1s 2s and 0s?

0 reply
janekd 10 Feb 04, 2014 03:58 AM

It's 12s and 10s. I youtubed it to find out
http://www.youtube.com/watch?v=E_Maoh4U6mU
Excellent tab :)

guest
Wanna post a correction for this tab? Suggest correction