Oops, an error
Loading. Please wait.

Dead Seeds bass

version 3
version 3

Whole song

2,028 views 1 this week
1 commentread comment
1 2 3 4 5
x 5
add to favorites
×
Save as Personal and add changes to this tab that will be seen only by you. Learn more ›
×
You can save this tab as Personal to edit and correct it or add notes. All changes will be seen only by you. Learn more »
launch autoscroll
font size
0
reset
guitar tuner
backing track
0:00
0:00
edit
Autoscroll
slow
fast
+/-
esc
set tempo
stop
                                                                   Lamb Of God
                                                                    Dead Seeds




     H        Q    S S S S    E.   S  E  S S S S S S S S S S  
G||------------------------|---------------------------------|
D||------------------------|---------------------------------|
A||------------------------|---------------------------------|
D||-----------0----0-0-0-0-|--3b---3b-L--0-0-1-0-4-0-5-4-1-3-|


  E.  S E  E  Q    S S S S    E.   S  E  S S S S S S S S S S  
---------------------------|---------------------------------|
---------------------------|---------------------------------|
---------------------------|---------------------------------|
--0---4-L--3--0----0-0-0-0-|--3b---3b-L--0-0-1-0-4-0-5-4-1-3-|


  E.  S E  E  Q    S S S S    E.   S  E  S S S S S S S S S S  
---------------------------|---------------------------------|
---------------------------|---------------------------------|
---------------------------|---------------------------------|
--0---4-L--3--0----0-0-0-0-|--3b---3b-L--0-0-1-0-4-0-5-4-1-3-|


  E.  S E  E  Q    S S S S    E.   S  E  S S S S S S S S S S  
---------------------------|---------------------------------|
---------------------------|---------------------------------|
---------------------------|---------------------------------|
--0---4-L--3--0----0-0-0-0-|--3b---3b-L--0-0-1-0-4-0-5-4-1-3-|


  S S S S S S S S H           W                   W                 
---------------------------|-------------------|-------------------|
---------------------------|-------------------|-------------------|
---------------------------|-------------------|-------------------|
--0-0-0-0-0-0-0-0----------|-------------------|-------------------|


  H        S S S S S S S S    S S S S S S S S H           W                 
---------------------------|---------------------------|-------------------|
---------------------------|---------------------------|-------------------|
---------------------------|---------------------------|-------------------|
-----------0-1-1-1-1-1-1-1-|--0-0-0-0-0-0-0-0----------|-------------------|


  W                   W                   S S S S S S S S S S S S S S S S  
-------------------|-------------------|----------------------------------|
-------------------|-------------------|----------------------------------|
-------------------|-------------------|--5-3-5-----------5-3-5-----------|
-------------------|-------------------|--------0-0-0-0-0-------0-0-0-0-0-|


  S S S S S S S S S S S S S S S S    S S S S S S S S S S S S S S S S  
----------------------------------|----------------------------------|
--------------------------4-5-4---|----------------------------------|
--6-5-6-----------6-5-3-5-------6-|--5-3-5-----------5-3-5-----------|
--------0-0-0-0-0-----------------|--------0-0-0-0-0-------0-0-0-0-0-|


  S S S S S S S S S S S S S S S S    S S S S S S S S S S S S S S S S  
----------------------------------|----------------------------------|
----------------------------------|----------------------------------|
--6-5-6---------------------------|--5-3-5-----------5-3-5-----------|
--------0-0-0-0-0-0-1-1-1-1-1-1-1-|--------0-0-0-0-0-------0-0-0-0-0-|


  S S S S S S S S S S S S S S S S    S S S S S S S S S S S S S S S S  
----------------------------------|----------------------------------|
--------------------------4-5-4---|----------------------------------|
--6-5-6-----------6-5-3-5-------6-|--5-3-5-----------5-3-5-----------|
--------0-0-0-0-0-----------------|--------0-0-0-0-0-------0-0-0-0-0-|


  S S S S S S S S S S S S S S S S    S S S S S S S S S S S S S S S S  
----------------------------------|----------------------------------|
----------------------------------|----------------------------------|
--6-5-6---------------------------|----------------------------------|
--------0-0-0-0-0-0-1-1-1-1-1-1-1-|--1-2-2-3-2-2-1-2-2-3-2-2-5-3-3-3-|


                                                     
  S S S S S S S S S S S S S  S  S  S     H        Q    S S S S  
--------------------------------------|------------------------|
--------------------------------------|------------------------|
--------------------------------------|------------------------|
--1-2-2-3-2-2-1-2-2-3-2-2-1--1--1--1--|-----------0----0-0-0-0-|


  E.   S  E  S S S S S S S S S S    E.  S E  E  Q    S S S S  
---------------------------------|---------------------------|
---------------------------------|---------------------------|
---------------------------------|---------------------------|
--3b---3b-L--0-0-1-0-4-0-5-4-1-3-|--0---4-L--3--0----0-0-0-0-|


  E.   S  E  S S S S S S S S S S    E.  S E  E  Q    S S S S  
---------------------------------|---------------------------|
---------------------------------|---------------------------|
---------------------------------|---------------------------|
--3b---3b-L--0-0-1-0-4-0-5-4-1-3-|--0---4-L--3--0----0-0-0-0-|


  E.   S  E  S S S S S S S S S S    E.  S E  E  Q    S S S S  
---------------------------------|---------------------------|
---------------------------------|---------------------------|
---------------------------------|---------------------------|
--3b---3b-L--0-0-1-0-4-0-5-4-1-3-|--0---4-L--3--0----0-0-0-0-|


  E.   S  E  S S S S S S S S S S    S S S S S S S S H         
---------------------------------|---------------------------|
---------------------------------|---------------------------|
---------------------------------|---------------------------|
--3b---3b-L--0-0-1-0-4-0-5-4-1-3-|--0-0-0-0-0-0-0-0----------|


  W                   W                   H        S S S S S S S S  
-------------------|-------------------|---------------------------|
-------------------|-------------------|---------------------------|
-------------------|-------------------|---------------------------|
-------------------|-------------------|-----------0-1-1-1-1-1-1-1-|


  S S S S S S S S H           W                   W                 
---------------------------|-------------------|-------------------|
---------------------------|-------------------|-------------------|
---------------------------|-------------------|-------------------|
--0-0-0-0-0-0-0-0----------|-------------------|-------------------|


  W                   S S S S S S S S S S S S S S S S  
-------------------|----------------------------------|
-------------------|----------------------------------|
-------------------|--5-3-5-----------5-3-5-----------|
-------------------|--------0-0-0-0-0-------0-0-0-0-0-|


  S S S S S S S S S S S S S S S S    S S S S S S S S S S S S S S S S  
----------------------------------|----------------------------------|
--------------------------4-5-4---|----------------------------------|
--6-5-6-----------6-5-3-5-------6-|--5-3-5-----------5-3-5-----------|
--------0-0-0-0-0-----------------|--------0-0-0-0-0-------0-0-0-0-0-|


  S S S S S S S S S S S S S S S S    S S S S S S S S S S S S S S S S  
----------------------------------|----------------------------------|
----------------------------------|----------------------------------|
--6-5-6---------------------------|--5-3-5-----------5-3-5-----------|
--------0-0-0-0-0-0-1-1-1-1-1-1-1-|--------0-0-0-0-0-------0-0-0-0-0-|


  S S S S S S S S S S S S S S S S    S S S S S S S S S S S S S S S S  
----------------------------------|----------------------------------|
--------------------------4-5-4---|----------------------------------|
--6-5-6-----------6-5-3-5-------6-|--5-3-5-----------5-3-5-----------|
--------0-0-0-0-0-----------------|--------0-0-0-0-0-------0-0-0-0-0-|


  S S S S S S S S S S S S S S S S    S S S S S S S S S S S S S S S S  
----------------------------------|----------------------------------|
----------------------------------|----------------------------------|
--6-5-6---------------------------|----------------------------------|
--------0-0-0-0-0-0-1-1-1-1-1-1-1-|--1-2-2-3-2-2-1-2-2-3-2-2-5-3-3-3-|


                                                     
  S S S S S S S S S S S S S  S  S  S     H        Q    S S S S  
--------------------------------------|------------------------|
--------------------------------------|------------------------|
--------------------------------------|------------------------|
--1-2-2-3-2-2-1-2-2-3-2-2-1--1--1--1--|-----------0----0-0-0-0-|


  E.   S  E  S S S S S S S S S S    E.  S E  E  Q    S S S S  
---------------------------------|---------------------------|
---------------------------------|---------------------------|
---------------------------------|---------------------------|
--3b---3b-L--0-0-1-0-4-0-5-4-1-3-|--0---4-L--3--0----0-0-0-0-|


  E.   S  E  S S S S S S S S S S    E.  S E  E  Q    S S S S  
---------------------------------|---------------------------|
---------------------------------|---------------------------|
---------------------------------|---------------------------|
--3b---3b-L--0-0-1-0-4-0-5-4-1-3-|--0---4-L--3--0----0-0-0-0-|


  E.   S  E  S S S S S S S S S S    E.  S E  E  Q    S S S S  
---------------------------------|---------------------------|
---------------------------------|---------------------------|
---------------------------------|---------------------------|
--3b---3b-L--0-0-1-0-4-0-5-4-1-3-|--0---4-L--3--0----0-0-0-0-|


  E.   S  E  S S S S S S S S S S    W                   W                 
---------------------------------|-------------------|-------------------|
---------------------------------|-------------------|-------------------|
---------------------------------|-------------------|-------------------|
--3b---3b-L--0-0-1-0-4-0-5-4-1-3-|--0----------------|--L----------------|


  S S S S S S S S S S S S S S S S    S S S S S S S S S S S S S S S S  
----------------------------------|----------------------------------|
----------------------------------|----------------------------------|
----------------------------------|----------------------------------|
--2-3-2-2-2-3-2-2-2-3-2-2-2-3-2-2-|--2-3-2-2-2-3-2-2-2-3-2-2-2-3-2-2-|


  S S S S S S S S S S S S S S S S    S S S S S S S S S S S S S S S S  
----------------------------------|----------------------------------|
----------------------------------|----------------------------------|
----------------------------------|----------------------------------|
--2-3-2-2-2-3-2-2-2-3-2-2-2-3-2-2-|--2-3-2-2-2-3-2-2-2-3-2-2-2-3-2-2-|


  S S S S S S S S S S S S S S S S    S S S S S S S S S S S S S S S S  
----------------------------------|----------------------------------|
----------------------------------|----------------------------------|
----------------------------------|----------------------------------|
--2-3-2-2-2-3-2-2-2-3-2-2-2-3-2-2-|--2-3-2-2-2-3-2-2-2-3-2-2-2-3-2-2-|


  Q    S S E  E  S S E  E     S S S S Q    S S E  E  S S  
---------------------------|-----------------------------|
---------------------------|-----------------------------|
---------------------------|-----------------------------|
--6----2-2-5--L--2-2-5--L--|--2-3-2-2-5----2-2-5--L--2-2-|


  S S S S Q    S S S S S S S S    Q    S S E  E  S S E  E   
-------------------------------|---------------------------|
-------------------------------|---------------------------|
-------------------------------|---------------------------|
--3-2-2-2-5----2-3-2-2-2-3-2-2-|--6----2-2-5--L--2-2-5--L--|


  S S S S Q    S S E  E  S S    S S S S Q    S S S S S S S S  
-----------------------------|-------------------------------|
-----------------------------|-------------------------------|
-----------------------------|-------------------------------|
--2-3-2-2-5----2-2-5--L--2-2-|--3-2-2-2-5----2-3-2-2-2-3-2-2-|


  Q    S S E  E  S S E  E     S S S S Q    S S E  E  S S  
---------------------------|-----------------------------|
---------------------------|-----------------------------|
---------------------------|-----------------------------|
--6----2-2-5--L--2-2-5--L--|--2-3-2-2-5----2-2-5--L--2-2-|


  S S S S Q    S S S S S S S S    Q    S S E  E  S S E  E   
-------------------------------|---------------------------|
-------------------------------|---------------------------|
-------------------------------|---------------------------|
--3-2-2-2-5----2-3-2-2-2-3-2-2-|--6----2-2-5--L--2-2-5--L--|


  S S S S Q    S S E  E  S S    S S S S Q    S S S S S S S S  
-----------------------------|-------------------------------|
-----------------------------|-------------------------------|
-----------------------------|-------------------------------|
--2-3-2-2-5----2-2-5--L--2-2-|--3-2-2-2-5----0-1-0-0-3-1-0-7-|


  E  E  S S S S E  E  S S S S    E  S S S S S S S S S S S S S S  
------------------------------|---------------------------------|
------------------------------|---------------------------------|
------------------------------|-----------3-5-6-----------------|
--L--6--0-1-0-7-L--6--0-1-0-7-|--L--3-5-6-------0-1-0-0-3-1-0-7-|


  E  E  S S S S E  E  S S S S    E  S S S S S S S S S S S S S S  
------------------------------|---------------------------------|
------------------------------|---------------------------------|
------------------------------|-----------3-5-6-----------------|
--L--6--0-1-0-7-L--6--0-1-0-7-|--L--3-5-6-------0-1-0-0-3-1-0-7-|


  E  E  S S S S E  E  S S S S    E  S S S S S S S S S S S S S S  
------------------------------|---------------------------------|
------------------------------|---------------------------------|
------------------------------|-----------3-5-6-----------------|
--L--6--0-1-0-7-L--6--0-1-0-7-|--L--3-5-6-------0-1-0-0-3-1-0-7-|


  E  E  S S S S E  E  S S S S    E  S S S S S S    H         
------------------------------|-----------------|-----------|
------------------------------|-----------------|-----------|
------------------------------|-----------3-5-6-|-----------|
--L--6--0-1-0-7-L--6--0-1-0-7-|--L--3-5-6-------|-----------|


  Q    S S S S E.   S  E  S S    S S S S S S S S E.   S  E  E    
------------------------------|---------------------------------|
------------------------------|---------------------------------|
---------------5b---5b-L------|------------------5b---5b-L--5b--|
--0----0-0-0-0------------0-0-|--1-0-4-0-5-4-1-3----------------|


  Q    S S S S E.   S  E  S S    S S S S S S S S E.   S  E  E    
------------------------------|---------------------------------|
------------------------------|---------------------------------|
---------------5b---5b-L------|------------------5b---5b-L--5b--|
--0----0-0-0-0------------0-0-|--1-0-4-0-5-4-1-3----------------|


  Q    S S S S E.   S  E  S S    S S S S S S S S E.   S  E  E    
------------------------------|---------------------------------|
------------------------------|---------------------------------|
---------------5b---5b-L------|------------------5b---5b-L--5b--|
--0----0-0-0-0------------0-0-|--1-0-4-0-5-4-1-3----------------|


  Q    S S S S E.   S  E  S S    S S S S S S S S    E.  S E  E  Q    S S S S  
------------------------------|------------------|---------------------------|
------------------------------|------------------|---------------------------|
---------------5b---5b-L------|------------------|---------------------------|
--0----0-0-0-0------------0-0-|--1-0-4-0-5-4-1-3-|--0---4-L--3--0----0-0-0-0-|


  E.   S  E  S S S S S S S S S S    E.  S E  E  Q    S S S S  
---------------------------------|---------------------------|
---------------------------------|---------------------------|
---------------------------------|---------------------------|
--3b---3b-L--0-0-1-0-4-0-5-4-1-3-|--0---4-L--3--0----0-0-0-0-|


  E.   S  E  S S S S S S S S S S    E.  S E  E  Q    S S S S  
---------------------------------|---------------------------|
---------------------------------|---------------------------|
---------------------------------|---------------------------|
--3b---3b-L--0-0-1-0-4-0-5-4-1-3-|--0---4-L--3--0----0-0-0-0-|


  E.   S  E  S S S S S S S S S S    E.  S E  E  Q    S S S S  
---------------------------------|---------------------------|
---------------------------------|---------------------------|
---------------------------------|---------------------------|
--3b---3b-L--0-0-1-0-4-0-5-4-1-3-|--0---4-L--3--0----0-0-0-0-|


  E.   S  E  S S S S S S S S S S   
---------------------------------||
---------------------------------||
---------------------------------||
--3b---3b-L--0-0-1-0-4-0-5-4-1-3-||


Tabbed by liquidbassial. probly incorrect in alot of spots but meh

Duration Legend
---------------
W - whole
H - half
Q - quarter
E - 8th
S - 16th
T - 32nd
X - 64th
. - note dotted
|-n-|  - n-tuplets


Tablature Legend
----------------
L - tied note
x - dead note
g - grace note
(n) - ghost note
> - accentuded note
NH - natural harmonic
AH - artificial harmonic
TH - tapped harmonic
SH - semi harmonic
PH - pitch harmonic
h - hammer on
p - pull off
b - bend
br - bendRelease
pb - preBend
pbr - preBendRelease
brb - bendReleaseBend
\n/ - tremolo bar dip
\n - tremolo bar dive
-/n - tremolo bar Release up
/n\ - tremolo bar inverted dip
/n - tremolo bar return
-\n - tremolo bar Release down
S - shift slide
s - legato slide
/ -  slide into from below or out of upwards
\ -  slide into from above or out of downwards
~ - vibrato
W - wide vibrato
tr - trill
TP - tremolo picking
T - tapping
S - slap
P - pop
< - fade in
^ - brush up
v - brush down

            
            
Suggest correction
Creating personal tab
Creating personal tab
You can edit any tab online and save it as your Personal.

You can edit, replace or remove any tab part or add personal notes – all changes will be seen only by you.

Personal tabs can be accessed anytime from any device, even offline.
Learn more »
comments
print report bad tab
1 comment total.
-1 reply
davothemc 10 Mar 22, 2010 09:52 PM

you suck balls

guest
You may want to rate the tab now too:
select rating
Wanna post a correction for this tab? Suggest correction