Oops, an error
Loading. Please wait.
We have an official Descending tab made by UG professional guitarists. Check out the tab »
×
11,611 views 3 this week
4 commentsread comments
1 2 3 4 5
x 7
add to favorites
×
Save as Personal and add changes to this tab that will be seen only by you. Learn more ›
×
You can save this tab as Personal to edit and correct it or add notes. All changes will be seen only by you. Learn more »
launch autoscroll
font size
0
reset
how to read this tab
guitar tuner
backing track
0:00
0:00
edit
Autoscroll
slow
fast
+/-
esc
set tempo
stop
Author
Difficulty
Lamb Of God - Descending - Sacrament

Tabbed by Elvisz (elvisz@kornkids.com)
                 (elvisz84@yahoo.com)
Tunning: dropped D (D A D G b e) 

Intro:(fading in)
|------------------------------------------------------------------|
|------------------------------------------------------------------|
|------------------------------------------------------------------|
|------------------------------------------------------------------|
|-(0)-13-----------12-13-----------12-13-----------12-13-----------|
|--------12-0-12-0-------12-0-12-0------12-0-12-0--------12-0-12-0-|

|-----------------------------------------------------------------|
|-----------------------------------------------------------------|
|-----------------------------------------------------------------|
|-----------------------------------------------------------------|
|-13-12-----------13-12-----------13-12-----------13-12-----------|
|-------0-12-0-12-------0-12-0-12-------0-12-0-12-------0-12-0-12-|

Pre-verse1:
|------------------------------------------------------------------|
|------------------------------------------------------------------|
|------------------------------------------------------------------|
|------------------------------------------------------------------|
|-(0)-13-----------12-13-----------12-13-----------12-13-----------|
|--------12-0-12-0-------12-0-12-0------12-0-12-0--------12-0-12-0-|

|-----------------------------------------------------------------|
|-----------------------------------------------------------------|
|-----------------------------------------------------------------|
|-----------------------------------------------------------------|
|-13-12-----------13-12-----------13-12-----------13-12-----------|
|-------0-12-0-12-------0-12-0-12-------0-12-0-12-------0-12-0-12-|


Pre-Verse2:
|-----------------------------------|------------------------------|
|-----------------------------------|------------------------------|
|-----------------------------------|------------------------------|
|-8888888\7777777\5555555\3333333\1-|-0-0-13--0-0-14-60-13-0-0-443-|
|-8888888\7777777\5555555\3333333\1-|-0-0-13--0-0-14-60-13-0-0-443-|
|-8888888\7777777\5555555\3333333\1-|-0-0-13--0-0-14-60-13-0-0-443-|

Verse1:
|------------------------------------------------------------------|
|------------------------------------------------------------------|
|------------------------------------------------------------------|
|------------------------------------------------------------------|
|-(0)-13-----------12-13-----------12-13-----------12-13-----------|
|--------12-0-12-0-------12-0-12-0------12-0-12-0--------12-0-12-0-|
  ................................................................   .palm mute 

|-----------------------------------------------------------------|
|-----------------------------------------------------------------|
|-----------------------------------------------------------------|
|-----------------------------------------------------------------|
|-13-12-----------13-12-----------13-12-----------13-12-----------|
|-------0-12-0-12-------0-12-0-12-------0-12-0-12-------0-12-0-12-|
  ...............................................................   .palm mute

Verse2:
(guitar1)
|------------------------------------------------------------------|
|------------------------------------------------------------------|
|------------------------------------------------------------------|
|------------------------------------------------------------------|
|-(0)-13-----------12-13-----------12-13-----------12-13-----------|
|--------12-0-12-0-------12-0-12-0------12-0-12-0--------12-0-12-0-|

|-----------------------------------------------------------------|
|-----------------------------------------------------------------|
|-----------------------------------------------------------------|
|-----------------------------------------------------------------|
|-13-12-----------13-12-----------13-12-----------13-12-----------|
|-------0-12-0-12-------0-12-0-12-------0-12-0-12-------0-12-0-12-|

(guitar2)
|---------------------------------------------------------|
|-2/333333/555555/6666-56865353-2/33333333333333333333333-|
|---------------------------------------------------------|
|---------------------------------------------------------|
|---------------------------------------------------------|
|---------------------------------------------------------|

Pre-Chorus1:
(guitar1)
|-----------------------------------|------------------------------|
|-----------------------------------|------------------------------|
|-----------------------------------|------------------------------|    
|-8888888\7777777\5555555\3333333\1-|-0-0-13--0-0-14-60-13-0-0-443-|
|-8888888\7777777\5555555\3333333\1-|-0-0-13--0-0-14-60-13-0-0-443-|
|-8888888\7777777\5555555\3333333\1-|-0-0-13--0-0-14-60-13-0-0-443-|

(guitar2)
Pre-Verse2:
|-----------------------------------|------------------------------|
|-2/3333333333333333333333333333333-|------------------------------|
|-----------------------------------|------------------------------|
|-----------------------------------|-0-0-13--0-0-14-60-13-0-0-443-|
|-----------------------------------|-0-0-13--0-0-14-60-13-0-0-443-|
|-----------------------------------|-0-0-13--0-0-14-60-13-0-0-443-|

Pre-Chorus2:
|-----------------------------------|
|-----------------------------------|
|-----------------------------------|
|-8888888\7777777\5555555\3333333\1-|
|-8888888\7777777\5555555\3333333\1-|
|-8888888\7777777\5555555\3333333\1-|

Chorus:
|------------------------------------------------------------------|
|------------------------------------------------------------------|
|------------------------------------------------------------------|
|------------------------------------------------------------------|
|-(0)-13-----------12-13-----------12-13-----------12-13-----------|
|--------12-0-12-0-------12-0-12-0------12-0-12-0--------12-0-12-0-|

|-----------------------------------------------------------------|
|-----------------------------------------------------------------|
|-----------------------------------------------------------------|
|-----------------------------------------------------------------|
|-13-12-----------13-12-----------13-12-----------13-12-----------|
|-------0-12-0-12-------0-12-0-12-------0-12-0-12-------0-12-0-12-|

Verse1:
|------------------------------------------------------------------|
|------------------------------------------------------------------|
|------------------------------------------------------------------|
|------------------------------------------------------------------|
|-(0)-13-----------12-13-----------12-13-----------12-13-----------|
|--------12-0-12-0-------12-0-12-0------12-0-12-0--------12-0-12-0-|
  ................................................................   .palm mute 

|-----------------------------------------------------------------|
|-----------------------------------------------------------------|
|-----------------------------------------------------------------|
|-----------------------------------------------------------------|
|-13-12-----------13-12-----------13-12-----------13-12-----------|
|-------0-12-0-12-------0-12-0-12-------0-12-0-12-------0-12-0-12-|
  ...............................................................   .palm mute

Verse2:
(guitar1)
|------------------------------------------------------------------|
|------------------------------------------------------------------|
|------------------------------------------------------------------|
|------------------------------------------------------------------|
|-(0)-13-----------12-13-----------12-13-----------12-13-----------|
|--------12-0-12-0-------12-0-12-0------12-0-12-0--------12-0-12-0-|

|-----------------------------------------------------------------|
|-----------------------------------------------------------------|
|-----------------------------------------------------------------|
|-----------------------------------------------------------------|
|-13-12-----------13-12-----------13-12-----------13-12-----------|
|-------0-12-0-12-------0-12-0-12-------0-12-0-12-------0-12-0-12-|

(guitar2)
|---------------------------------------------------------|
|-2/333333/555555/6666-56865353-2/33333333333333333333333-|
|---------------------------------------------------------|
|---------------------------------------------------------|
|---------------------------------------------------------|
|---------------------------------------------------------|

Pre-Chorus1:
(guitar1)
|-----------------------------------|------------------------------|
|-----------------------------------|------------------------------|
|-----------------------------------|------------------------------|    
|-8888888\7777777\5555555\3333333\1-|-0-0-13--0-0-14-60-13-0-0-443-|
|-8888888\7777777\5555555\3333333\1-|-0-0-13--0-0-14-60-13-0-0-443-|
|-8888888\7777777\5555555\3333333\1-|-0-0-13--0-0-14-60-13-0-0-443-|

(guitar2)
Pre-Verse2:
|-----------------------------------|------------------------------|
|-2/3333333333333333333333333333333-|------------------------------|
|-----------------------------------|------------------------------|
|-----------------------------------|-0-0-13--0-0-14-60-13-0-0-443-|
|-----------------------------------|-0-0-13--0-0-14-60-13-0-0-443-|
|-----------------------------------|-0-0-13--0-0-14-60-13-0-0-443-|

Pre-Chorus2:
|-----------------------------------|
|-----------------------------------|
|-----------------------------------|
|-8888888\7777777\5555555\3333333\1-|
|-8888888\7777777\5555555\3333333\1-|
|-8888888\7777777\5555555\3333333\1-|

Bridge1:
|---------------------------------------|
|---------------------------------------|
|---------------------------------------|
|-7--787--------------------------------|
|-7--787--------------------------------|
|-7--787-7-8-10--8108-7-8-7-5-7-5-3-5-8-|

Bridge2:
(guitar1)
|-----------------------------------|
|-----------------------------------|
|-----------------------------------|
|-0-010-----------------------------|
|-0-010-----------------------------|
|-0-010-0-1-4-141-0-1-4-5-8-7-5-7-1-|

(guitar2)
|-----------------------------------|
|-----------------------------------|
|-----------------------------------|
|-0-010-0-1-4-141-0-1-4-5-8-7-5-7-1-|
|-0-010-----------------------------|
|-0-010-----------------------------|

Bridge3:
|-----------------------------------|------------------------------|
|-----------------------------------|------------------------------|
|-----------------------------------|------------------------------|    
|-8888888\7777777\5555555\3333333\1-|-0-0-13--0-0-14-60-13-0-0-443-|
|-8888888\7777777\5555555\3333333\1-|-0-0-13--0-0-14-60-13-0-0-443-|
|-8888888\7777777\5555555\3333333\1-|-0-0-13--0-0-14-60-13-0-0-443-|

|-----------------------------------|
|-----------------------------------|
|-----------------------------------|
|-8888888\7777777\5555555\3333333\1-|
|-8888888\7777777\5555555\3333333\1-|
|-8888888\7777777\5555555\3333333\1-|

Bridge4:
|-----------------------------------|
|-----------------------------------|
|-----------------------------------|
|-----------------------------------|
|-----------------------------------|
|-8888888\7777777\5555555\3333333\1-|
  ..................................  .palm mute

Fill1:
|--------------------------------------------------------|
|--------------------------------------------------------|
|--------------------------------------------------------|
|--------------------------------------------------------|
|--12------------12------------12-----------12-----------|
|-----0-12-0-12-----0-12-0-12-----0-12-0-12----0-12-0-12-|

Chorus:
|------------------------------------------------------------------|
|------------------------------------------------------------------|
|------------------------------------------------------------------|
|------------------------------------------------------------------|
|-(0)-13-----------12-13-----------12-13-----------12-13-----------|
|--------12-0-12-0-------12-0-12-0------12-0-12-0--------12-0-12-0-|

|-----------------------------------------------------------------|
|-----------------------------------------------------------------|
|-----------------------------------------------------------------|
|-----------------------------------------------------------------|
|-13-12-----------13-12-----------13-12-----------13-12-----------|
|-------0-12-0-12-------0-12-0-12-------0-12-0-12-------0-12-0-12-|

Outro1:
(guitar1)
|------------------------------------------------------------------|
|------------------------------------------------------------------|
|------------------------------------------------------------------|
|------------------------------------------------------------------|
|-(0)-13-----------12-13-----------12-13-----------12-13-----------|
|--------12-0-12-0-------12-0-12-0------12-0-12-0--------12-0-12-0-|

|-----------------------------------------------------------------|
|-----------------------------------------------------------------|
|-----------------------------------------------------------------|
|-----------------------------------------------------------------|
|-13-12-----------13-12-----------13-12-----------13-12-----------|
|-------0-12-0-12-------0-12-0-12-------0-12-0-12-------0-12-0-12-|

(guitar2)
|---------------------------------------------------------|
|-2/333333/555555/6666-56865353-2/33333333333333333333333-|
|---------------------------------------------------------|
|---------------------------------------------------------|
|---------------------------------------------------------|
|---------------------------------------------------------|

Outro2:
|--------------------------------------------------------|
|--------------------------------------------------------|
|--------------------------------------------------------|
|--------------------------------------------------------|
|--12------------12------------12-----------12-----------|
|-----0-12-0-12-----0-12-0-12-----0-12-0-12----0-12-0-12-|

            
            
Suggest correction
Creating personal tab
Creating personal tab
You can edit any tab online and save it as your Personal.

You can edit, replace or remove any tab part or add personal notes – all changes will be seen only by you.

Personal tabs can be accessed anytime from any device, even offline.
Learn more »
comments
print report bad tab
4 comments total. Showing first comments.
+1 reply
TheRaven666 10 Dec 22, 2006 06:36 PM

Damn good tab! bridge 1 and 2 were completely throwing me off. thanks for straighting'em out man.

0 reply
Metalfan89 10 Dec 30, 2007 07:32 AM

Awsome tab. Definatly the best Descending one. 5/5

0 reply
nomadicphantom 21 Apr 09, 2008 08:39 PM

great tab man!!!
couldn't find not one mistake!!!
5 stars

p.s. what other tabs have you made??

guest
You may want to rate the tab now too:
select rating
Wanna post a correction for this tab? Suggest correction