Oops, an error
Loading. Please wait.

Everything To Nothing bass

version 1
version 1

Whole song

Interactive

1,088 views 1 this week
1 commentread comment
1 2 3 4 5
2 more votes to show rating
add to favorites
×
Save as Personal and add changes to this tab that will be seen only by you. Learn more ›
×
You can save this tab as Personal to edit and correct it or add notes. All changes will be seen only by you. Learn more »
launch autoscroll
font size
0
reset
guitar tuner
backing track
0:00
0:00
edit
Autoscroll
slow
fast
+/-
esc
set tempo
stop
--------------------------------------------------------------------------------------
EVERYTHING TO NOTHING - Lamb Of God
--------------------------------------------------------------------------------------

Tabbed by: van_halen_fan

Tuning: Drop D (from low to high: D,A,D,G)

This tab is based off of the bass master track, which can be found here:
http://www.youtube.com/watch?v=n75IL_XETS0

Intro

   Q  Q  Q  Q    Q  Q  Q  Q    Q  Q  Q  Q    Q  Q  Q  Q    Q  Q  E E E E
G|-r--r--r--r--|----r--r--r--|-r--r--r--r--|-r--r--r--r--|-r--r----------|
D|-e--e--e--e--|----e--e--e--|-e--e--e--e--|-e--e--e--e--|-e--e----------|
A|-s--s--s--s--|----s--s--s--|-s--s--s--s--|-s--s--s--s--|-s--s----------|
D|-t--t--t--t--|-2--t--t--t--|-t--t--t--t--|-t--t--t--t--|-t--t--8-7-2-3-|


     E E E E E E E E   E E E E E E E E   E E E E E E E E   E E E E E E E E
G||------------------|-----------------|-----------------|-----------------|
D||*-----------------|-----------------|-----------------|-----------------|
A||*-----------------|-----------------|-----------------|-----------------|
D||--2-2-2-5-2-2-2-2-|-2-5-2-2-6-2-5-2-|-2-2-2-5-2-2-2-2-|-2-2-2-2-8-7-2-3-|


   E E E E E E E E   E E E E E E E E   SSE E SSE E SSE   SSE E SSE E SSE
G|-----------------|-----------------|-----------------|------------------||
D|-----------------|-----------------|-----------------|-----------------*||
A|-----------------|-----------------|-----------------|-----------------*||
D|-2-2-2-5-2-2-2-2-|-2-5-2-2-6-2-5-2-|-000-0-000-0-000-|-333-3-333-3-333--||


Verse 1

     E E E E E E E E   E E E E E E E E   E E E E E E E E   E E E E E E E E
G||------------------|-----------------|-----------------|-----------------|
D||*-----------------|-----------------|-----------------|-----------------|
A||*-----------------|-----------------|-----------------|-----------------|
D||--2-2-2-5-2-2-2-2-|-2-5-2-2-6-2-5-2-|-2-2-2-5-2-2-2-2-|-2-2-2-2-8-7-2-3-|


   E E E E E E E E   E E E E E E E E   E E E E E E E E   E E E E E E E E
G|-----------------|-----------------|-----------------|------------------||
D|-----------------|-----------------|-----------------|-----------------*||
A|-----------------|-----------------|-----------------|-----------------*||
D|-2-2-2-5-2-2-2-2-|-2-5-2-2-6-2-5-2-|-0-0-0-0-0-0-0-0-|-3-3-3-3-3-3-3-3--||


   E E E E E E E E   E E E E E E E E   E E E E E E E E   E E E E E E Q
G|-----------------|-----------------|-----------------|----------------|
D|-----------------|-slowly-bend-up--|-----------------|----------------|
A|-----------------|-^-^-^-^-^-^-^-^-|-----------------|-^-^-^-^-^-^----|
D|-2-2-2-2-2-2-2-2-|-2-2-2-2-2-2-2-2-|-2-2-2-2-2-2-2-2-|-2-2-2-2-2-2-7\-|


Chorus

     E E E E E E E E   E E E E E E E E   E E E E E E E E   E E E E E E E E
G||------------------|-----------------|-----------------|-----------------|
D||*-----------------|-----------------|-----------------|-----------------|
A||*-----------------|-----------------|-----------------|-----------------|
D||--2-5-4-2-5-4-2-8-|-7-5-8-7-5-4-2-3-|-2-2-2-2-2-2-2-2-|-2-2-2-2-2-2-2-2-|


   E E E E E E E E   E E E E E E E E   Q  Q  E Q  E   Q  Q  E Q  E     W    + H.  Q
G|-----------------|-----------------|--------------|---------------||------|---------|
D|-----------------|-----------------|--------------|--------------*||------|---------|
A|-----------------|-----------------|--------------|--------------*||------|---------|
D|-2-5-4-2-5-4-2-8-|-7-5-8-7-5-4-2-3-|-0--0--0-0--0-|-3--3--3-3--3--||-2----|(2)-/14\-|


Verse 2

     E E E E E E E E   E E E E E E E E   E E E E E E E E   E E E E E E E E
G||------------------|-----------------|-----------------|-----------------|
D||*-----------------|-----------------|-----------------|-----------------|
A||*-----------------|-----------------|-----------------|-----------------|
D||--2-2-2-5-2-2-2-2-|-2-5-2-2-6-2-5-2-|-2-2-2-5-2-2-2-2-|-2-2-2-2-8-7-2-3-|


   E E E E E E E E   E E E E E E E E   E E E E E E E E   E E E E E E E E
G|-----------------|-----------------|-----------------|------------------||
D|-----------------|-----------------|-----------------|-----------------*||
A|-----------------|-----------------|-----------------|-----------------*||
D|-2-2-2-5-2-2-2-2-|-2-5-2-2-6-2-5-2-|-0-0-0-0-0-0-0-0-|-3-3-3-3-3-3-3-3--||


   E E E E E E E E   E E E E E E E E   E E E E E E E E   E E E E E E Q
G|-----------------|-----------------|-----------------|----------------|
D|-----------------|-----------------|-----------------|----------------|
A|-----------------|-^-^-^-^-^-^-^-^-|-----------------|-^-^-^-^-^-^----|
D|-2-2-2-2-2-2-2-2-|-2-2-2-2-2-2-2-2-|-2-2-2-2-2-2-2-2-|-2-2-2-2-2-2-7\-|
		      

Chorus

     E E E E E E E E   E E E E E E E E   E E E E E E E E   E E E E E E E E
G||------------------|-----------------|-----------------|-----------------|
D||*-----------------|-----------------|-----------------|-----------------|
A||*-----------------|-----------------|-----------------|-----------------|
D||--2-5-4-2-5-4-2-8-|-7-5-8-7-5-4-2-3-|-2-2-2-2-2-2-2-2-|-2-2-2-2-2-2-2-2-|


   E E E E E E E E   E E E E E E E E   Q  Q  E Q  E   Q  Q  E Q  E
G|-----------------|-----------------|--------------|---------------||
D|-----------------|-----------------|--------------|--------------*||
A|-----------------|-----------------|--------------|--------------*||
D|-2-5-4-2-5-4-2-8-|-7-5-8-7-5-4-2-3-|-0--0--0-0--0-|-3--3--3-3--3--||


Bridge

     SSE E SSE E SSE   E E E E H   3x  SSE E SSE E SSE   Q^Q^Q  Q^Q^Q
G||------------------|---------r----||-----------------|---------------|
D||*-----------------|---------e---*||-----------------|---------------|
A||*-----------------|---------s---*||-----------------|---------------|
D||--222-2-222-2-222-|-3-2-2-2-t----||-222-2-222-2-222-|-3-2-2--3-2-2--|


     SSE E SSE E SSE   E E E E H     E SSE E E E E E   E Q. E Q.
G||------------------|---------r---|-r---------------|-----------|
D||*-----------------|---------e---|-e---------------|-----------|
A||*-----------------|---------s---|-s---------------|-----------|
D||--222-2-222-2-222-|-3-2-2-2-t---|-t-222-2-3-2-2-2-|-2-3b-2-3b-|


   SSE E SSE E SSE   E E E E H     E SSE E E E E E   E E E E E E E E
G|-----------------|---------r---|-r---------------|------------------||
D|-----------------|---------e---|-e---------------|-----------------*||
A|-----------------|---------s---|-s---------------|-----------------*||
D|-222-2-222-2-222-|-3-2-2-2-t---|-t-222-2-3-2-2-2-|-5-2-2-8-7-5-2-5--||


     E E E E E E E E   E E E E E E E E   E E E E E E E E   E Q. E Q.
G||------------------|-----------------|-----------------|-----------|
D||*-----------------|-----------------|-----------------|-----------|
A||*-----------------|-----------------|-----------------|-----------|
D||--2-2-2-2-2-2-2-2-|-3-2-2-2-2-2-2-2-|-2-2-2-2-3-2-2-2-|-2-5b-2-5b-|


   E E E E E E E E   E E E E E E E E   E E E E E E E E   E E E E E E E E
G|-----------------|-----------------|-----------------|------------------||
D|-----------------|-----------------|-----------------|-----------------*||
A|-----------------|-----------------|-----------------|-----------------*||
D|-2-2-2-2-2-2-2-2-|-3-2-2-2-2-2-2-2-|-2-2-2-2-3-2-2-2-|-5-2-2-8-7-5-2-5--||


     E E E E E E E E   E E E E E E E E   E E E E E E E E   E Q. E Q. 4x
G||------------------|-----------------|-----------------|------------||
D||*-----------------|-----------------|-----------------|-----------*||
A||*-----------------|-----------------|-----------------|-----------*||
D||--2-2-2-2-2-2-2-2-|-3-2-2-2-2-2-2-2-|-2-2-2-2-3-2-2-2-|-2-5b-2-5b--||


   E E E E E E E E   E E E E E E E E   E E E E E E E E   E E E E E E Q
G|-----------------|-----------------|-----------------|----------------|
D|-----------------|-----------------|-----------------|----------------|
A|-----------------|-^-^-^-^-^-^-^-^-|-----------------|-^-^-^-^-^-^----|
D|-2-2-2-2-2-2-2-2-|-2-2-2-2-2-2-2-2-|-2-2-2-2-2-2-2-2-|-2-2-2-2-2-2-7\-|
		      

Chorus

     E E E E E E E E   E E E E E E E E   E E E E E E E E   E E E E E E E E
G||------------------|-----------------|-----------------|-----------------|
D||*-----------------|-----------------|-----------------|-----------------|
A||*-----------------|-----------------|-----------------|-----------------|
D||--2-5-4-2-5-4-2-8-|-7-5-8-7-5-4-2-3-|-2-2-2-2-2-2-2-2-|-2-2-2-2-2-2-2-2-|


   E E E E E E E E   E E E E E E E E   Q  Q  E Q  E   Q  Q  E Q  E
G|-----------------|-----------------|--------------|---------------||
D|-----------------|-----------------|--------------|--------------*||
A|-----------------|-----------------|--------------|--------------*||
D|-2-5-4-2-5-4-2-8-|-7-5-8-7-5-4-2-3-|-0--0--0-0--0-|-3--3--3-3--3--||


Outro

     E E E E E E E E   E E E E E E E E   E E E E E E E E   E E E E E E E E
G||------------------|-----------------|-----------------|-----------------|
D||*-----------------|-----------------|-----------------|---------------5-|
A||*-----------------|-----------------|-----------------|-----------------|
D||--2-5-4-2-5-4-2-8-|-7-5-8-7-5-4-2-3-|-2-8-7-2-4-5-2-5-|-7-2-7-8-5-7-8---|


   E E E E E E E E   E E E E E E E E   Q  Q  E Q  E   Q  Q  E Q  E     W
G|-----------------|-----------------|--------------|---------------||------||
D|-----------------|-----------------|--------------|--------------*||------||
A|-----------------|-----------------|--------------|--------------*||------||
D|-2-5-4-2-5-4-2-8-|-7-5-8-7-5-4-2-3-|-0--0--0-0--0-|-3--3--3-3--3--||-2----||

Enjoy!!!

| /  slide up        W = whole note
| \  slide down      H = half note           H. = dotted half note
| h  hammer-on       Q = quarter note        Q. = dotted quarter note
| p  pull-off        E = eighth note         E. = dotted eight note
| ~  vibrato         S = sixteenth note      S. = dotted sixteenth note
| +  harmonic
| x  Mute note       X^X^X = triplet
======================================================================================

            
            
Suggest correction
Creating personal tab
Creating personal tab
You can edit any tab online and save it as your Personal.

You can edit, replace or remove any tab part or add personal notes – all changes will be seen only by you.

Personal tabs can be accessed anytime from any device, even offline.
Learn more »
Give kudos to tab author, rate the tab!
1 2 3 4 5
comments
print report bad tab
1 comment total.
+1 reply
Spinny Kid 10 Jun 15, 2014 02:41 PM

nice tab. Looks good. I have the studio experience of this album, and it sounds just like the bass track!

guest
You may want to rate the tab now too:
select rating
Wanna post a correction for this tab? Suggest correction