Oops, an error
Loading. Please wait.

Faded Line bass

version 1
version 1
3,805 views 6 this week
4 commentsread comments
1 2 3 4 5
x 5
add to favorites
×
Save as Personal and add changes to this tab that will be seen only by you. Learn more ›
×
You can save this tab as Personal to edit and correct it or add notes. All changes will be seen only by you. Learn more »
launch autoscroll
font size
0
reset
guitar tuner
edit
Autoscroll
slow
fast
+/-
esc
set tempo
stop
Author
Difficulty
Lamb of God - The Faded Line

Drop D Tuning

Riff 1 x4
   tt s s  s s  s s  s s  s s  s s  s s  s   tt s s  s s  s s  s s  s s  s s  s s  s
|------------------------------------------|-----------------------------------------|
|4-----------------------------------------|-----------------------------------------|
|4-----------------------------------------|-----------------------------------------|
|--00-0-16-0-16-0-16-0-16-0-16-0-16-0-16-0-|-00-0-15-0-15-0-15-0-15-0-15-0-15-0-15-0-|

  tt s s  s s  s s  s s  s s  s s  s s  s   tt s s  s s  s s  s s  s  s  s  s  s  s  s
|-----------------------------------------|---------------------------------------------|
|-----------------------------------------|---------------------------------------------|
|-----------------------------------------|---------------------16-13-12-17-12----------|
|-00-0-18-0-18-0-18-0-13-0-13-0-13-0-13-0-|-00-0-12-0-12-0-12-0----------------16-17-13-|

Riff 2 x2
  tt s tt s tt s tt s tt s tt s tt s tt s  E tt s tt s tt s tt s tt s tt s tttt
|-----------------------------------------|-------------------------------------|
|-----------------------------------------|-------------------------------------|
|-----------------------------------------|-------------------------------------|
|-00-0-00-0-00-0-00-0-00-0-00-0-00-0-00-0-|--00-0-00-0-00-0-00-0-00-0-00-0-5410-|

Fill 1 x1
  s s s s s s s s s s s s t t t tt t t t    s s s s s s s s s s s s s s s s
|-----------------------------------------|---------------------------------|
|-----------------------------------------|---------------------------------|
|-----------------------------------------|---------------------------------|
|-0-0-0-0-0-0-0-0-0-0-0-0-191514018141317-|-0-0-0-0-0-0-0-0-0-0-0-0-0-0-0-0-|

Riff 3A x4
  s s s s s s s s s s s s t t t tt t t t
|-----------------------------------------|
|-----------------------------------------|
|-----------------------------------------|
|-0-0-0-0-0-0-0-0-0-0-0-0-191514018141317-|

Riff 3B x4
  s tt s tt s tt s tt s tt s ttt t t tt t t t 
|----------------------------------------------|
|----------------------------------------------|
|----------------------------------------------|
|-0-00-0-00-0-00-0-00-0-00-0-00191514018141317-|

Riff 4 x1
  tttt s tt s tt s  tt s  tt s  tt s tt s tt
|--------------------------------------------|
|--------------------------------------------|
|------7----8----10----12----10----8----7----|
|-8888---88---88----88----88----88---88---88-|

  tttt s tt s tt s tt s tt s tt t t t tt 6 6 6 6 t
|--------------------------------------------------|
|----------------5----7----5-----------------------|
|------7----8-------------------5h8p5p04h7p4h7p4p0-|
|-5555---55---55---55---55---55--------------------|

Riff 3B x2

Riff 4 x1

Riff 5A x2
  tttttttt s E. tttttttt s E.   tttttttt s E. tttttttttttttttt
|-----------------------------|--------------------------------|
|-----------------------------|--------------------------------|
|-----------------------------|--------------------------------|
|-00000000-0----00000000-0----|-00000000-0----0000000014101410-|

Riff 5B x6
  tttttttt s E. tttttttt s E.
|-----------------------------|
|-----------------------------|
|-----------------------------|
|-00000000-0----00000000-0----|

Fill 2 x1
  tttttttt s E. tttttttt s E.   tttttttt s E. ttttttttttttt s.
|-----------------------------|--------------------------------|
|-----------------------------|--------------------------------|
|-----------------------------|---------------------------2-3--|
|-00000000-0----00000000-0----|-00000000-0----000000001410-----|

Riff 6 x3
  s s s s s s s s s s s s s s s s   s s s s s s s s s s s s tttttttt
|---------------------------------|----------------------------------|
|---------------------------------|----------------------------------|
|---------------------------------|----------------------------------|
|-0-0-8-0-0-8-0-7-0-0-7-0-0-7-0-4-|-0-0-4-0-0-4-0-3-0-0-3-0-14101410-|

Fill 3 x1
  s s s s s s s s s s s s s s s s   s s s s s s s s s s s s tttt e
|---------------------------------|---------------------------------|
|---------------------------------|---------------------------------|
|---------------------------------|---------------5-----5--------5--|
|-0-0-8-0-0-8-0-7-0-0-7-0-0-7-0-1-|-0-0-1-0-0-1-0---0-0---0-0000----|

  tt s s  s s  s s  s s  s s  s s  s s  s   tt s s  s s  s s  s s  s s  s s  s s  s
|-----------------------------------------|-----------------------------------------|
|-----------------------------------------|-----------------------------------------|
|-----------------------------------------|-----------------------------------------|
|-00-0-16-0-16-0-16-0-16-0-16-0-16-0-16-0-|-00-0-15-0-15-0-15-0-15-0-15-0-15-0-15-0-|

  tt s s  s s  s s  s s  s s  s s  s s  s   tt s s  s s  s s  s e E  Q
|-----------------------------------------|-------------------------------|
|-----------------------------------------|-------------------------------|
|-----------------------------------------|-------------------------------|
|-00-0-18-0-18-0-18-0-13-0-13-0-13-0-13-0-|-00-0-12-0-12-0-12-0-0---------|

Riff 3B x4

Riff 4 x1

Riff 3B x2

Riff 4 x1

Fill 4 x1
  tttt s tt s tt s  tt s  tt s  tt s tt s tt
|--------------------------------------------|
|--------------------------------------------|
|------7----8----10----12----10----8----7----|
|-8888---88---88----88----88----88---88---88-|

  tttt s tt s tt s tt t t t t  s  t t  s  t t  e
|-----------------------------------------------------|
|-----------------------------------------------------|
|------7----8----7------------------------------------|
|-5555---55---55---55/11111111-11-1111-11-1111-11--\--|

Riff 7 x14
  ttttT t66ttt S ttttT tttttttt t s t t s
|-----------------------------------------|
|-----------------------------------------|
|-----------------------------------------|
|-0000--000002---2222--22222001h4-4-1h3-3-|

            
            
Suggest correction
Creating personal tab
Creating personal tab
You can edit any tab online and save it as your Personal.

You can edit, replace or remove any tab part or add personal notes – all changes will be seen only by you.

Personal tabs can be accessed anytime from any device, even offline.
Learn more »
comments
print report bad tab
4 comments total. Showing first comments.
+2 reply
thrash_bassist 41 Apr 23, 2007 06:37 AM

omg...that is really wrong.

+2 reply
caldwell4567 10 Sep 07, 2007 09:00 PM

it looks like the guitar tab, i mean its damn near impossible to play that high for the verse riff on the low e string, and if you watch the killadelphia dvd it shows campbell playin it on the 2nd string which would make it sumthing like
g|-----------------------------------|
d|-----------------------------------|
a|----------------------12878-11878--|
d|0-0-0-0-0-0-0-0-0-0-0--------------|

+2 reply
cancer_monkey 10 Jun 09, 2008 05:23 AM

This is a "huge stinking pile of sick" to quote Randy, try waking up before you tab something.

guest
You may want to rate the tab now too:
select rating
Wanna post a correction for this tab? Suggest correction