Oops, an error
Loading. Please wait.

Faded Line tab

version 5
22,017 views 6 this week
2 commentsread comments
1 2 3 4 5
x 9
add to favorites
×
Save as Personal and add changes to this tab that will be seen only by you. Learn more ›
×
You can save this tab as Personal to edit and correct it or add notes. All changes will be seen only by you. Learn more »
launch autoscroll
font size
0
reset
how to read this tab
guitar tuner
edit
Autoscroll
slow
fast
+/-
esc
set tempo
stop
                                 THE FADED LINE
                           As recorded by Lamb Of God
                     (From the 2004 Album ASHES OF THE WAKE)

Words by Randy Blythe

Music by Lamb Of God
Arranged by Lamb Of God
Transcribed by Simon Montague-Bassett

Gtr I (D A D G B E) - 'Willie Adler'
Gtr II (D A D G B E) - 'Mark Morton'
Gtr III (D A D G B E) - 'Mark Morton- Harmony'

    Q=180
   4/4
    Gtrs I, II
    PM--|    PM   PM   PM     PM   PM   PM   PM-
    S S E  E E  E E  E E    E E  E E  E E  E E
||-----------------------|---------------------|
||o----------------------|---------------------|
||-----------------------|---------------------|
||-----------------------|---------------------|
||o----------------------|---------------------|
||--0-0-0-16-0-16-0-16-0-|-16-0-16-0-16-0-16-0-|


 -----|    PM   PM   PM     PM   PM   PM   PM
  S S E  E E  E E  E E    E E  E E  E E  E E
|----------------------|-----------------------|
|----------------------|-----------------------|
|----------------------|-----------------------|
|----------------------|-----------------------|
|----------------------|-----------------------|
|-0-0-0-15-0-15-0-15-0-|-15-0-15-0-15-0-15-0---|


  PM--|    PM   PM   PM     PM   PM   PM   PM-
  S S E  E E  E E  E E    E E  E E  E E  E E
|----------------------|---------------------|
|----------------------|---------------------|
|----------------------|---------------------|
|----------------------|---------------------|
|----------------------|---------------------|
|-0-0-0-18-0-18-0-18-0-|-13-0-13-0-13-0-13-0-|


 -----|    PM   PM   PM
  S S E  E E  E E  E E    E  E  E  E  E  E  E  E    4x
|----------------------|----------------------------||
|----------------------|---------------------------o||
|----------------------|----------------------------||
|----------------------|----------------------------||
|----------------------|-16-13-12-17-12------------o||
|-0-0-0-12-0-12-0-12-0-|----------------16-17-13----||


    PM----------------------------------------------|
    S S E S S E S S E S S E   S S E S S E S S E S S E
||--------------------------|-------------------------|
||o-------------------------|-------------------------|
||--------------------------|-------------------------|
||--------------------------|-------------------------|
||o-------------------------|-------------------------|
||--0-0-0-0-0-0-0-0-0-0-0-0-|-0-0-0-0-0-0-0-0-0-0-0-0-|


     PM------------------------------------------|
  Q  S S E S S E S S E   S S E S S E S S E S S S S
|----------------------|-----------------------------|
|----------------------|-----------------------------|
|----------------------|-----------------------------|
|----------------------|-----------------------------|
|----------------------|-----------------------------|
|----0-0-0-0-0-0-0-0-0-|-0-0-0-0-0-0-0-0-0-0-0-0-0---|


       PM----------------------------------|
  H    S S E S S E   S S E S S E S S E S S E
|------------------|-------------------------|
|------------------|-------------------------|
|------------------|-------------------------|
|-3----------------|-------------------------|
|-3----------------|-------------------------|
|-3----3-3-3-3-3-3-|-3-3-3-3-3-3-3-3-3-3-3-3-|


     PM--------------------------------------------|
  Q  S S E S S E S S E   S S E S S E S S S S S S S S
|----------------------|------------------------------||
|----------------------|-----------------------------o||
|----------------------|------------------------------||
|----------------------|------------------------------||
|----------------------|-----------------------------o||
|----3-3-3-3-3-3-3-3-3-|-4-4-4-4-4-4-3-4-3-0-1-4-1-0--||


  Gtr II
  PM----------------------|
  E E E E E E E E   E E E E  S  S  S  S  S  S  S  S
|-----------------|---------------------------------|
|-----------------|---------------------------------|
|-----------------|---------------------------------|
|-----------------|---------------------------------|
|-----------------|---------------------------------|
|-0-0-0-0-0-0-0-0-|-0-0-0-0-19-15-14-15-18-15-14-15-|
|
| Gtr I
| W                 W
|-----------------|---------------------------------|
|-----------------|---------------------------------|
|-----------------|---------------------------------|
|-----------------|---------------------------------|
|-----------------|---------------------------------|
|-----------------|---------------------------------|


  PM--------------------------|
  E E E E E E E E   E E E E E E  Q
|-----------------|------------------|
|-----------------|------------------|
|-----------------|------------------|
|-----------------|------------------|
|-----------------|-----------0-12\--|
|-0-0-0-0-0-0-0-0-|-0-0-0-0-0-0-12\--|
|
|                             PM
| W                 H       E E  Q
|-----------------|------------------|
|-----------------|------------------|
|-----------------|------------------|
|-----------------|------------------|
|-----------------|-----------0-12\--|
|-----------------|-----------0-12\--|


    Gtrs I, II
    PM----------------------|
    E E E E E E E E   E E E E  S  S  S  S  S  S  S  S  4x
||------------------|----------------------------------||
||o-----------------|---------------------------------o||
||------------------|----------------------------------||
||------------------|----------------------------------||
||o-----------------|---------------------------------o||
||--0-0-0-0-0-0-0-0-|-0-0-0-0-19-15-14-15-18-15-14-15--||


    PM----------------------------------|
    E S S E S S E S S E S S   E S S E S S  S  S  S  S  S  S  S  S   4x
||--------------------------|---------------------------------------||
||o-------------------------|--------------------------------------o||
||--------------------------|---------------------------------------||
||--------------------------|---------------------------------------||
||o-------------------------|--------------------------------------o||
||--0-0-0-0-0-0-0-0-0-0-0-0-|-0-0-0-0-0-0-19-15-14-15-18-15-14-15---||


  PM----|   PM|   PM|    PM|     PM|    PM|   PM|   PM---
  S S S S E S S E S S  E S S   E S S  E S S E S S E S S
|----------------------------|--------------------------|
|----------------------------|--------------------------|
|----------------------------|--------------------------|
|----------------------------|-7------------------------|
|---------7-----8-----10-----|-------10-----8-----7-----|
|-8-8-8-8---8-8---8-8----8-8-|---8-8----8-8---8-8---8-8-|


 -------|   PM|   PM|   PM|     PM|   PM|
  S S S S E S S E S S E S S   E S S E S S S S S S S S S S
|---------------------------|--------------------------------|
|---------------------------|--------------------------------|
|---------------------------|--------------------------------|
|---------------------5-----|-7-----5------------------------|
|---------7-----8-----------|-------------5h8p5p0-4h7p4p0----|
|-5-5-5-5---5-5---5-5---5-5-|---5-5---5-5--------------------|


    PM----------------------------------|
    E S S E S S E S S E S S   E S S E S S  S  S  S  S  S  S  S  S
||--------------------------|---------------------------------------||
||o-------------------------|--------------------------------------o||
||--------------------------|---------------------------------------||
||--------------------------|---------------------------------------||
||o-------------------------|--------------------------------------o||
||--0-0-0-0-0-0-0-0-0-0-0-0-|-0-0-0-0-0-0-19-15-14-15-18-15-14-15---||


  PM----|   PM|   PM|    PM|     PM|    PM|   PM|   PM---
  S S S S E S S E S S  E S S   E S S  E S S E S S E S S
|----------------------------|--------------------------|
|----------------------------|--------------------------|
|----------------------------|--------------------------|
|----------------------------|-7------------------------|
|---------7-----8-----10-----|-------10-----8-----7-----|
|-8-8-8-8---8-8---8-8----8-8-|---8-8----8-8---8-8---8-8-|


 -------|   PM|   PM|   PM|     PM|   PM|
  S S S S E S S E S S E S S   E S S E S S S S S S S S S S
|---------------------------|--------------------------------|
|---------------------------|--------------------------------|
|---------------------------|--------------------------------|
|---------------------5-----|-7-----5------------------------|
|---------7-----8-----------|-------------5h8p5p0-4h7p4p0----|
|-5-5-5-5---5-5---5-5---5-5-|---5-5---5-5--------------------|


    PM--------------|         PM--------------|
    S S S S S S S S S Q..     S S S S S S S S S Q..
||--------------------------|-------------------------|
||o-------------------------|-------------------------|
||--------------------------|-------------------------|
||--------------------------|-------------------------|
||o-------------------------|-------------------------|
||--0-0-0-0-0-0-0-0-0-------|-0-0-0-0-0-0-0-0-0-------|


  PM--------------|         PM----------------------------|
  S S S S S S S S S Q..     S S S S S S S S S S S S S S S S
|-------------------------|-------------------------------------||
|-------------------------|------------------------------------o||
|-------------------------|-------------------------------------||
|-------------------------|-------------------------------------||
|-------------------------|------------------------------------o||
|-0-0-0-0-0-0-0-0-0-------|-0-0-0-0-0-0-0-0-3-4-3-0-1-4-1-0-----||


    Gtr I
    PM--------------|                  PM----------------|
    S S S S S S S S  S Q..             S S S S  S S  S S  S Q..
||----------------------------------|------------------------------------|
||o---------------------------------|------------------------------------|
||----------------------------------|------------------------------------|
||----------------------------------|------------------------------------|
||o---------------------------------|------------------------------------|
||--0-0-0-0-0-0-0-0--0--------------|--0-0-0-0--0-0--0-0--0--------------|
|
|       Gtr II
|                                      ~~
|   H                E      E  E  E    Q        E    E    E      E  E  E
||----------------------------------|------------------------------------|
||o---------------------------------|------------------------------------|
||----------------------------------|------------------------------------|
||----------------------------------|------------------------------------|
||o---------------------------------|------------------------------------|
||------------------12h====13-12h13s|=17-------13---12---12-----13-13-10-|


  PM--------------|                  PM--------------|
  S S S S S S S S  S Q..             S S S S  S S  S S  H
|---------------------------------|---------------------------------||
|---------------------------------|--------------------------------o||
|---------------------------------|---------------------------------||
|---------------------------------|---------------------------------||
|---------------------------------|--------------------------------o||
|-0-0-0-0-0-0-0-0--0--------------|--0-0-0-0--0-0--0-0--------------||
|
|                                    ~~
| H                E      E  E  E    Q        E    E    E  E  Q
|---------------------------------|---------------------------------||
|---------------------------------|--------------------------------o||
|---------------------------------|---------------------------------||
|---------------------------------|---------------------------------||
|---------------------------------|--------------------------------o||
|-----------------12h====13-12h13s|=17-------13---12---12-13-10-----||


  PM--------------|                  PM----------------|
  S S S S S S S S  S Q..             S S S S  S S  S S  S Q..
|---------------------------------|------------------------------------|
|---------------------------------|------------------------------------|
|---------------------------------|------------------------------------|
|---------------------------------|------------------------------------|
|---------------------------------|------------------------------------|
|-0-0-0-0-0-0-0-0--0--------------|--0-0-0-0--0-0--0-0--0--------------|
|
|                                    ~~
| H                E      E  E  E    Q        E    E    E      E  E  E
|---------------------------------|------------------------------------|
|---------------------------------|------------------------------------|
|---------------------------------|------------------------------------|
|---------------------------------|------------------------------------|
|---------------------------------|------------------------------------|
|-----------------12h====13-12h13s|=17-------13---12---12-----13-13-10-|
|
| Gtr III
|                                    ~~
| H                E      E  E  E    Q        E    E    E      E  E  E
|---------------------------------|------------------------------------|
|---------------------------------|------------------------------------|
|---------------------------------|------------------------------------|
|---------------------------------|------------------------------------|
|-----------------12h====13-12h13s|=17-------13---12---12-----13-13-10-|
|---------------------------------|------------------------------------|


  PM--------------|                  PM--------------|
  S S S S S S S S  S Q..             S S S S  S S  S S  H
|---------------------------------|------------------------------|
|---------------------------------|------------------------------|
|---------------------------------|------------------------------|
|---------------------------------|------------------------------|
|---------------------------------|------------------------------|
|-0-0-0-0-0-0-0-0--0--------------|--0-0-0-0--0-0--0-0-----------|
|
|                                    ~~
| H                E      E  E  E    Q        E    E    E  E  Q
|---------------------------------|------------------------------|
|---------------------------------|------------------------------|
|---------------------------------|------------------------------|
|---------------------------------|------------------------------|
|---------------------------------|------------------------------|
|-----------------12h====13-12h13s|=17-------13---12---12-13-10--|
|
|                                    ~~
| H                E      E  E  E    Q        E    E    E  E  Q
|---------------------------------|------------------------------|
|---------------------------------|------------------------------|
|---------------------------------|------------------------------|
|---------------------------------|------------------------------|
|-----------------12h====13-12h13s|=17-------13---12---12-13-10--|
|---------------------------------|------------------------------|


  PM--------------|                  PM----------------|
  S S S S S S S S  S Q..             S S S S  S S  S S  S Q..
|---------------------------------|------------------------------------|
|---------------------------------|------------------------------------|
|---------------------------------|------------------------------------|
|---------------------------------|------------------------------------|
|---------------------------------|------------------------------------|
|-0-0-0-0-0-0-0-0--0--------------|--0-0-0-0--0-0--0-0--0--------------|
|
|                                    ~~
| H                E      E  E  E    Q        E    E    E      E  E  E
|---------------------------------|------------------------------------|
|---------------------------------|------------------------------------|
|---------------------------------|------------------------------------|
|---------------------------------|------------------------------------|
|---------------------------------|------------------------------------|
|-----------------12h====13-12h13s|=17-------13---12---12-----13-13-10-|
|
|                                    ~~
| H                E      E  E  E    Q        E    E    E      E  E  E
|---------------------------------|------------------------------------|
|---------------------------------|------------------------------------|
|---------------------------------|------------------------------------|
|---------------------------------|------------------------------------|
|-----------------12h====13-12h13s|=17-------13---12---12-----13-13-10-|
|---------------------------------|------------------------------------|


  PM--------------|                  PM------------------------|  ~~
  S S S S S S S S  S Q..             S S S S  S S  S S  S S  S S  Q
|---------------------------------|------------------------------------|
|---------------------------------|------------------------------------|
|---------------------------------|------------------------------------|
|---------------------------------|------------------------------------|
|---------------------------------|------------------------------------|
|-0-0-0-0-0-0-0-0--0--------------|--0-0-0-0--0-0--0-0--7-7--8-8--5----|
|
|                                    ~~
| H                E      E  E  E    Q        E    E    E    E    Q
|---------------------------------|------------------------------------|
|---------------------------------|------------------------------------|
|---------------------------------|------------------------------------|
|---------------------------------|------------------------------------|
|---------------------------------|------------------------------------|
|-----------------12h====13-12h13s|=17-------13---12---12---13---10----|
|
|                                    ~~
| H                E      E  E  E    Q        E    E    E    E    Q
|---------------------------------|------------------------------------|
|---------------------------------|------------------------------------|
|---------------------------------|------------------------------------|
|---------------------------------|------------------------------------|
|-----------------12h====13-12h13s|=17-------13---12---12---13---10----|
|---------------------------------|------------------------------------|


    Gtrs I, II
    PM|    PM|    PM    PM|   PM|   PM
    E E  E E E  E E E   E E E E E E E E
||--------------------|-----------------|
||o-------------------|-----------------|
||--------------------|-----------------|
||--------------------|-----------------|
||o-----10-----10---9-|-----9-----9---6-|
||--0-0--8-0-0--8-0-7-|-0-0-7-0-0-7-0-4-|


  PM|   PM|   PM    PM|   PM--------------|
  E E E E E E E E   E E E E S S S S S S S S   3x
|-----------------|---------------------------||
|-----------------|--------------------------o||
|-----------------|---------------------------||
|-----------------|---------------------------||
|-----6-----6---5-|-----5--------------------o||
|-0-0-4-0-0-4-0-3-|-0-0-3-0-3-4-3-0-1-4-1-0---||


  PM|    PM|    PM    PM|   PM|   PM
  E E  E E E  E E E   E E E E E E E E
|-------------------|-----------------|
|-------------------|-----------------|
|-------------------|-----------------|
|-------------------|-----------------|
|-----10-----10---9-|-----9-----9---6-|
|-0-0--8-0-0--8-0-7-|-0-0-7-0-0-7-0-4-|


  PM|   PM|   PM    PM|   PM------|
  E E E E E E E E   E E E E S S S S Q
|-----------------|-----------------------|
|-----------------|-----------------------|
|-----------------|-----------------------|
|---------------7-|-----7-----------------|
|-----6-----6---5-|-----5-----------5\----|
|-0-0-4-0-0-4-0---|-0-0---0-0-0-0-0-------|


  PM--|    PM   PM   PM     PM   PM   PM   PM-
  S S E  E E  E E  E E    E E  E E  E E  E E
|----------------------|---------------------|
|----------------------|---------------------|
|----------------------|---------------------|
|----------------------|---------------------|
|----------------------|---------------------|
|-0-0-0-16-0-16-0-16-0-|-16-0-16-0-16-0-16-0-|


 -----|    PM   PM   PM     PM   PM   PM   PM
  S S E  E E  E E  E E    E E  E E  E E  E E
|----------------------|-----------------------|
|----------------------|-----------------------|
|----------------------|-----------------------|
|----------------------|-----------------------|
|----------------------|-----------------------|
|-0-0-0-15-0-15-0-15-0-|-15-0-15-0-15-0-15-0---|


  PM--|    PM   PM   PM     PM   PM   PM   PM-
  S S E  E E  E E  E E    E E  E E  E E  E E
|----------------------|---------------------|
|----------------------|---------------------|
|----------------------|---------------------|
|----------------------|---------------------|
|----------------------|---------------------|
|-0-0-0-18-0-18-0-18-0-|-13-0-13-0-13-0-13-0-|


                         Gtr I
 -----|    PM   PM   PM
  S S E  E E  E E  E E    E  E  E  E  E  E  E  E
|----------------------|---------------------------|
|----------------------|---------------------------|
|----------------------|---------------------------|
|----------------------|---------------------------|
|----------------------|-16-13-12-17-12------------|
|-0-0-0-12-0-12-0-12-0-|----------------16-17-13---|


    Gtrs I, II
    PM----------------------------------|
    E S S E S S E S S E S S   E S S E S S  S  S  S  S  S  S  S  S   4x
||--------------------------|---------------------------------------||
||o-------------------------|--------------------------------------o||
||--------------------------|---------------------------------------||
||--------------------------|---------------------------------------||
||o-------------------------|--------------------------------------o||
||--0-0-0-0-0-0-0-0-0-0-0-0-|-0-0-0-0-0-0-19-15-14-15-18-15-14-15---||


  PM----|   PM|   PM|    PM|     PM|    PM|   PM|   PM---
  S S S S E S S E S S  E S S   E S S  E S S E S S E S S
|----------------------------|--------------------------|
|----------------------------|--------------------------|
|----------------------------|--------------------------|
|----------------------------|-7------------------------|
|---------7-----8-----10-----|-------10-----8-----7-----|
|-8-8-8-8---8-8---8-8----8-8-|---8-8----8-8---8-8---8-8-|


 -------|   PM|   PM|   PM|     PM|   PM|
  S S S S E S S E S S E S S   E S S E S S S S S S S S S S
|---------------------------|--------------------------------|
|---------------------------|--------------------------------|
|---------------------------|--------------------------------|
|---------------------5-----|-7-----5------------------------|
|---------7-----8-----------|-------------5h8p5p0-4h7p4p0----|
|-5-5-5-5---5-5---5-5---5-5-|---5-5---5-5--------------------|


    PM----------------------------------|
    E S S E S S E S S E S S   E S S E S S  S  S  S  S  S  S  S  S
||--------------------------|---------------------------------------||
||o-------------------------|--------------------------------------o||
||--------------------------|---------------------------------------||
||--------------------------|---------------------------------------||
||o-------------------------|--------------------------------------o||
||--0-0-0-0-0-0-0-0-0-0-0-0-|-0-0-0-0-0-0-19-15-14-15-18-15-14-15---||


  PM----|   PM|   PM|    PM|     PM|    PM|   PM|   PM---
  S S S S E S S E S S  E S S   E S S  E S S E S S E S S
|----------------------------|--------------------------|
|----------------------------|--------------------------|
|----------------------------|--------------------------|
|----------------------------|-7------------------------|
|---------7-----8-----10-----|-------10-----8-----7-----|
|-8-8-8-8---8-8---8-8----8-8-|---8-8----8-8---8-8---8-8-|


 -------|   PM|   PM|   PM|     PM|   PM|
  S S S S E S S E S S E S S   E S S E S S S S S S S S S S
|---------------------------|--------------------------------|
|---------------------------|--------------------------------|
|---------------------------|--------------------------------|
|---------------------5-----|-7-----5------------------------|
|---------7-----8-----------|-------------5h8p5p0-4h7p4p0----|
|-5-5-5-5---5-5---5-5---5-5-|---5-5---5-5--------------------|


  PM----|   PM|   PM|    PM|     PM|    PM|   PM|   PM---
  S S S S E S S E S S  E S S   E S S  E S S E S S E S S
|----------------------------|--------------------------|
|----------------------------|--------------------------|
|----------------------------|--------------------------|
|----------------------------|-7------------------------|
|---------7-----8-----10-----|-------10-----8-----7-----|
|-8-8-8-8---8-8---8-8----8-8-|---8-8----8-8---8-8---8-8-|


 -------|   PM|   PM|   PM-------------|      PM|      PM|   ~~
  S S S S E S S E S S E S S    S  S  S  S  E  S  S  E  S  S  Q
|---------------------------|------------------------------------|
|---------------------------|------------------------------------|
|---------------------------|------------------------------------|
|---------------------5-----|------------------------------------|
|---------7-----8-----------|-------------12-------13-------12---|
|-5-5-5-5---5-5---5-5---5-5-|-11-11-11-11----11-11----11-11------|


  Q=210
  Gtr I
  W                 +W                 +W                  +W
|-----------------|------------------|-------------------|--------------|
|-----------------|------------------|-------------------|--------------|
|-----------------|------------------|-------------------|--------------|
|-0---------------|-(0)--------------|-(0)---------------|-(0)----------|
|-0---------------|-(0)--------------|-(0)---------------|-(0)----------|
|-0---------------|-(0)--------------|-(0)---------------|-(0)----------|
|
| Gtr II
| PM----|   PM----------|    PM----|       PM----------|
| E E E E E E E E    E  E Q  E E E E    E  E E E E e E E    Q  Q  Q  Q
|-----------------|------------------|-------------------|--------------|
|-----------------|------------------|-------------------|--------------|
|-----------------|------------------|-------------------|--------------|
|-----------------|------------------|-------------------|--------------|
|-0-0-0-0---0-0-0-|--0--0----0-0-0-0-|-----0-0-0-0-0-0-0-|--1S=4--1S=3--|
|-0-0-0-0---0-0-0-|--0--0----0-0-0-0-|-----0-0-0-0-0-0-0-|--1S=4--1S=3--|


  +W                  +W                 +W                  Q  Q  Q  Q
|-------------------|------------------|-------------------|-------------|
|-------------------|------------------|-------------------|-------------|
|-------------------|------------------|-------------------|-------------|
|-(0)---------------|-(0)--------------|-(0)---------------|-------------|
|-(0)---------------|-(0)--------------|-(0)---------------|-1S=4--1S=3--|
|-(0)---------------|-(0)--------------|-(0)---------------|-1S=4--1S=3--|
|
|  PM-----|   PM----------|    PM----|       PM----------|
|  E  E E E E E E E    E  E Q  E E E E    E  E E E E e E E   Q  Q  Q  Q
|-------------------|------------------|-------------------|-------------|
|-------------------|------------------|-------------------|-------------|
|-------------------|------------------|-------------------|-------------|
|-------------------|------------------|-------------------|-------------|
|--0--0-0-0---0-0-0-|--0--0----0-0-0-0-|-----0-0-0-0-0-0-0-|-1S=4--1S=3--|
|--0--0-0-0---0-0-0-|--0--0----0-0-0-0-|-----0-0-0-0-0-0-0-|-1S=4--1S=3--|


   PM------------|      PM-----------------|     PM---------|
   E    E      E   E  E E  E E          E  E Q   E E      E E
|-----------------------------------|-------------------------|
|-----------------------------------|-------------------------|
|-----------------------------------|-------------------------|
|-----------------------------------|-------------------------|
|--0----0------0---0----0--0-0------|---0--0-----0-0------0-0-|
|--0----0------0---0----0--0-0------|---0--0-----0-0------0-0-|
|
|  Q        a  Q      Q    Q     a      Q    Q   Q     a  Q
|-----------------------------------|-------------------------|
|-----------------------------------|-------------------------|
|-----------------------------------|-------------------------|
|-----------------------------------|-------------------------|
|-12------(12)s5----------13---(13)s|===5-------15---(15)s5---|
|-----------------------------------|-------------------------|
|
| Gtr III
|  H              +H                   +W
|-----------------------------------|-------------------------|
|-13b15----------(13)---------------|-(13)--------------------|
|-----------------------------------|-------------------------|
|-----------------------------------|-------------------------|
|-----------------------------------|-------------------------|
|-----------------------------------|-------------------------|


       PM----------------|
    E  E  E E      E e E E     Q        Q  Q  Q
|--------------------------|----------------------|
|--------------------------|----------------------|
|--------------------------|----------------------|
|--------------------------|----------------------|
|------0--0-0------0-0-0-0-|---1S=======4--1S=3---|
|------0--0-0------0-0-0-0-|---1S=======4--1S=3---|
|
|   Q     Q     a  Q   Q       Q     a  Q  Q  Q
|--------------------------|----------------------|
|--------------------------|----------------------|
|--------------------------|----------------------|
|--------------------------|------------------0---|
|--------13---(13)s5-------|--12---(12)s3---------|
|--------------------------|----------------------|
|
|  +W                         +W
|--------------------------|----------------------|
|-(13)---------------------|-(13)-----------------|
|--------------------------|----------------------|
|--------------------------|----------------------|
|--------------------------|----------------------|
|--------------------------|----------------------|


   PM------------|      PM-----------------|     PM---------|
   E    E      E E   E  E  E E          E  E Q   E E      E E
|------------------------------|------------------------------|
|------------------------------|------------------------------|
|------------------------------|------------------------------|
|------------------------------|------------------------------|
|--0----0------0-0------0--0-0-|--------0--0-----0-0------0-0-|
|--0----0------0-0------0--0-0-|--------0--0-----0-0------0-0-|
|
|  Q        a  Q     Q     Q       a    Q    Q   Q     a  Q
|------------------------------|------------------------------|
|------------------------------|------------------------------|
|------------------------------|------------------------------|
|------------------------------|------------------------------|
|-12------(12)s5----------13---|-(13)s==5-------15---(15)s5---|
|------------------------------|------------------------------|
|
|  H                +H                 +W
|------------------------------|------------------------------|
|-13b15------------(13)--------|------(13)--------------------|
|------------------------------|------------------------------|
|------------------------------|------------------------------|
|------------------------------|------------------------------|
|------------------------------|------------------------------|


       PM----------------|
    E  E  E E      E e E E     Q   Q  Q  Q
|--------------------------|----------------|
|--------------------------|----------------|
|--------------------------|----------------|
|--------------------------|----------------|
|------0--0-0------0-0-0-0-|---1S==4--1S=3--|
|------0--0-0------0-0-0-0-|---1S==4--1S=3--|
|
|   Q     Q     a  Q   Q       W
|--------------------------|----------------|
|--------------------------|----------------|
|--------------------------|----------------|
|--------------------------|----------------|
|--------13---(13)s5-------|---6------------|
|--------------------------|----------------|
|
|  +W                         +W
|--------------------------|----------------|
|-(13)---------------------|-(13)-----------|
|--------------------------|----------------|
|--------------------------|----------------|
|--------------------------|----------------|
|--------------------------|----------------|


   PM------------|      PM-----------------|     PM---------|
   E    E      E E   E  E  E E          E  E Q   E E      E E
|------------------------------|------------------------------|
|------------------------------|------------------------------|
|------------------------------|------------------------------|
|------------------------------|------------------------------|
|--0----0------0-0------0--0-0-|--------0--0-----0-0------0-0-|
|--0----0------0-0------0--0-0-|--------0--0-----0-0------0-0-|
|
|  Q        a  Q     Q     Q       a    Q    Q   Q     a  Q
|------------------------------|------------------------------|
|------------------------------|------------------------------|
|------------------------------|------------------------------|
|------------------------------|------------------------------|
|-12------(12)s5----------13---|-(13)s==5-------15---(15)s5---|
|------------------------------|------------------------------|
|
|  H                +H                 +W
|------------------------------|------------------------------|
|-13b15------------(13)--------|------(13)--------------------|
|------------------------------|------------------------------|
|------------------------------|------------------------------|
|------------------------------|------------------------------|
|------------------------------|------------------------------|


       PM----------------|
    E  E  E E      E e E E     Q        Q  Q  Q
|--------------------------|----------------------|
|--------------------------|----------------------|
|--------------------------|----------------------|
|--------------------------|----------------------|
|------0--0-0------0-0-0-0-|---1S=======4--1S=3---|
|------0--0-0------0-0-0-0-|---1S=======4--1S=3---|
|
|   Q     Q     a  Q   Q       Q     a  Q  Q  Q
|--------------------------|----------------------|
|--------------------------|----------------------|
|--------------------------|----------------------|
|--------------------------|------------------0---|
|--------13---(13)s5-------|--12---(12)s3---------|
|--------------------------|----------------------|
|
|  +W                         +W
|--------------------------|----------------------|
|-(13)---------------------|-(13)-----------------|
|--------------------------|----------------------|
|--------------------------|----------------------|
|--------------------------|----------------------|
|--------------------------|----------------------|


   PM------------|      PM-----------------|     PM--------
   E    E      E E   E  E  E E          E  E Q   E E  E E
|------------------------------|--------------------------|
|------------------------------|--------------------------|
|------------------------------|--------------------------|
|------------------------------|--------------------------|
|--0----0------0-0------0--0-0-|--------0--0-----0-0--0-0-|
|--0----0------0-0------0--0-0-|--------0--0-----0-0--0-0-|
|
|  Q        a  Q     Q     Q       a    Q    Q   Q    Q
|------------------------------|--------------------------|
|------------------------------|--------------------------|
|------------------------------|----------------11s==12---|
|------------------------------|----------------12s==13---|
|-12------(12)s5----------13---|-(13)s==5-----------------|
|------------------------------|--------------------------|
|
|  H                +H                 +W
|------------------------------|--------------------------|
|-13b15------------(13)--------|------(13)----------------|
|------------------------------|--------------------------|
|------------------------------|--------------------------|
|------------------------------|--------------------------|
|------------------------------|--------------------------|

*Play these harmonies separately

 ---------------------|
    E  E  E E  E e  E E     Q    Q        Q   Q
|-----------------------|-------------------------|
|-----------------------|-------------------------|
|-----------------------|-------------------------|
|-----------------------|-------------------------|
|------0--0-0--0-0--0-0-|---1S===4--------1S==3---|
|------0--0-0--0-0--0-0-|---1S===4--------1S==3---|
|
|                                |--3--|
|   Q     Q    Q    Q       Q    E  E  E  Q   Q
|-----------------------|-------------------------|
|-----------------------|-------------------------|
|--12s===14---14s==15---|--15---14h15p14-12--11---|
|--13s===16---16s==17---|--17---16h17p16-13--12---|
|-----------------------|-------------------------|
|-----------------------|-------------------------|
|
|  +W                      +W
|-----------------------|-------------------------|
|-(13)------------------|-(13)--------------------|
|-----------------------|-------------------------|
|-----------------------|-------------------------|
|-----------------------|-------------------------|
|-----------------------|-------------------------|


   PM-----------------------------------------|         PM-------------|
   E    E       E E   E  E   E  E          E  E   Q     E  E        E  E
|---------------------------------|--------------------------------------|
|---------------------------------|--------------------------------------|
|---------------------------------|--------------------------------------|
|---------------------------------|--------------------------------------|
|--0----0-------0-0------0---0--0-|--------0--0---------0--0--------0--0-|
|--0----0-------0-0------0---0--0-|--------0--0---------0--0--------0--0-|
|
|  Q        a   Q     Q      Q        a    Q     +Q     Q      a    Q
|---------------------------------|--------------------------------------|
|---------------------------------|--------------------------------------|
|-11------(11)h12----11----(11)---|-(11)-(11)---(11)--(11)---(11)-(11)---|
|-12------(12)h13----12----(12)---|-(12)-(12)---(12)--(12)---(12)-(12)---|
|-12------(12)s=5-----------13----|-(13)s==5-----------15----(15)s==5----|
|---------------------------------|--------------------------------------|
|
|  H                 +H                   +W
|---------------------------------|--------------------------------------|
|-13b15-------------(13)----------|------(13)----------------------------|
|---------------------------------|--------------------------------------|
|---------------------------------|--------------------------------------|
|---------------------------------|--------------------------------------|
|---------------------------------|--------------------------------------|


       PM----------------|
    E  E  E E      E e E E     Q        Q  Q  Q
|--------------------------|----------------------|
|--------------------------|----------------------|
|--------------------------|----------------------|
|--------------------------|----------------------|
|------0--0-0------0-0-0-0-|---1S=======4--1S=3---|
|------0--0-0------0-0-0-0-|---1S=======4--1S=3---|
|
|   Q     Q     a  Q   Q       Q     a  Q  Q  Q
|--------------------------|----------------------|
|--------------------------|----------------------|
|--------------------------|----------------------|
|--------------------------|------------------0---|
|--------13---(13)s5-------|--12---(12)s3---------|
|--------------------------|----------------------|
|
|  +W                         +W
|--------------------------|----------------------|
|-(13)---------------------|-(13)-----------------|
|--------------------------|----------------------|
|--------------------------|----------------------|
|--------------------------|----------------------|
|--------------------------|----------------------|


   PM--------------------------------------|     PM------------
   E    E      E E   E  E  E E          E  E Q   E E      E E
|------------------------------|------------------------------|
|------------------------------|------------------------------|
|------------------------------|------------------------------|
|------------------------------|------------------------------|
|--0----0------0-0------0--0-0-|--------0--0-----0-0------0-0-|
|--0----0------0-0------0--0-0-|--------0--0-----0-0------0-0-|
|
|  Q        a  Q     Q     Q       a    Q    Q   Q     a  Q
|------------------------------|------------------------------|
|------------------------------|------------------------------|
|------------------------------|------------------------------|
|------------------------------|------------------------------|
|-12------(12)s5----------13---|-(13)s==5-------15---(15)s5---|
|------------------------------|------------------------------|
|
|  H                +H                 +W
|------------------------------|------------------------------|
|-13b15------------(13)--------|------(13)--------------------|
|------------------------------|------------------------------|
|------------------------------|------------------------------|
|------------------------------|------------------------------|
|------------------------------|------------------------------|


 ------------------------|
    E  E  E E      E e E E     Q   Q  Q  Q
|--------------------------|----------------|
|--------------------------|----------------|
|--------------------------|----------------|
|--------------------------|----------------|
|------0--0-0------0-0-0-0-|---1S==4--1S=3--|
|------0--0-0------0-0-0-0-|---1S==4--1S=3--|
|
|   Q     Q     a  Q   Q       W
|--------------------------|----------------|
|--------------------------|----------------|
|--------------------------|----------------|
|--------------------------|----------------|
|--------13---(13)s5-------|---6------------|
|--------------------------|----------------|
|
|  +W                         +W
|--------------------------|----------------|
|-(13)---------------------|-(13)-----------|
|--------------------------|----------------|
|--------------------------|----------------|
|--------------------------|----------------|
|--------------------------|----------------|


   PM------------|      PM-----------------|     PM------------
   E    E      E E   E  E  E E          E  E Q   E E      E E
|------------------------------|------------------------------|
|------------------------------|------------------------------|
|------------------------------|------------------------------|
|------------------------------|------------------------------|
|--0----0------0-0------0--0-0-|--------0--0-----0-0------0-0-|
|--0----0------0-0------0--0-0-|--------0--0-----0-0------0-0-|
|
|  Q        a  Q     Q     Q       a    Q    Q   Q     a  Q
|------------------------------|------------------------------|
|------------------------------|------------------------------|
|------------------------------|------------------------------|
|------------------------------|------------------------------|
|-12------(12)s5----------13---|-(13)s==5-------15---(15)s5---|
|------------------------------|------------------------------|
|
|  H                +H                 +W
|------------------------------|------------------------------|
|-13b15------------(13)--------|------(13)--------------------|
|------------------------------|------------------------------|
|------------------------------|------------------------------|
|------------------------------|------------------------------|
|------------------------------|------------------------------|


 ------------------------|
    E  E  E E      E e E E     Q        Q  Q  Q
|--------------------------|----------------------|
|--------------------------|----------------------|
|--------------------------|----------------------|
|--------------------------|----------------------|
|------0--0-0------0-0-0-0-|---1S=======4--1S=3---|
|------0--0-0------0-0-0-0-|---1S=======4--1S=3---|
|
|   Q     Q     a  Q   Q       Q     a  Q  Q  Q
|--------------------------|----------------------|
|--------------------------|----------------------|
|--------------------------|----------------------|
|--------------------------|------------------0---|
|--------13---(13)s5-------|--12---(12)s3---------|
|--------------------------|----------------------|
|
|  +W                         +W
|--------------------------|----------------------|
|-(13)---------------------|-(13)-----------------|
|--------------------------|----------------------|
|--------------------------|----------------------|
|--------------------------|----------------------|
|--------------------------|----------------------|


   PM------------|      PM-----------------|     PM--------
   E    E      E E   E  E  E E          E  E Q   E E  E E
|------------------------------|--------------------------|
|------------------------------|--------------------------|
|------------------------------|--------------------------|
|------------------------------|--------------------------|
|--0----0------0-0------0--0-0-|--------0--0-----0-0--0-0-|
|--0----0------0-0------0--0-0-|--------0--0-----0-0--0-0-|
|
|  Q        a  Q     Q     Q       a    Q    Q   Q    Q
|------------------------------|--------------------------|
|------------------------------|--------------------------|
|------------------------------|----------------11s==12---|
|------------------------------|----------------12s==13---|
|-12------(12)s5----------13---|-(13)s==5-----------------|
|------------------------------|--------------------------|
|
|  H                +H                 +W
|------------------------------|--------------------------|
|-13b15------------(13)--------|------(13)----------------|
|------------------------------|--------------------------|
|------------------------------|--------------------------|
|------------------------------|--------------------------|
|------------------------------|--------------------------|


 ---------------------|
    E  E  E E  E e  E E     Q    Q        Q   Q
|-----------------------|-------------------------|
|-----------------------|-------------------------|
|-----------------------|-------------------------|
|-----------------------|-------------------------|
|------0--0-0--0-0--0-0-|---1S===4--------1S==3---|
|------0--0-0--0-0--0-0-|---1S===4--------1S==3---|
|
|                                |--3--|
|   Q     Q    Q    Q       Q    E  E  E  Q   Q
|-----------------------|-------------------------|
|-----------------------|-------------------------|
|--12s===14---14s==15---|--15---14h15p14-12--11---|
|--13s===16---16s==17---|--17---16h17p16-13--12---|
|-----------------------|-------------------------|
|-----------------------|-------------------------|
|
|  +W                      +W
|-----------------------|-------------------------|
|-(13)------------------|-(13)--------------------|
|-----------------------|-------------------------|
|-----------------------|-------------------------|
|-----------------------|-------------------------|
|-----------------------|-------------------------|


   PM--------|      PM-----------|    PM----|
   E    E  E E   E  E E E     E  E Q  E E E E
|-------------------------|-------------------|
|-------------------------|-------------------|
|-------------------------|-------------------|
|-------------------------|-------------------|
|--0----0--0-0------0-0-0-|---0--0----0-0-0-0-|
|--0----0--0-0------0-0-0-|---0--0----0-0-0-0-|
|
|  Q       Q     H           +W
|-------------------------|-------------------|
|-------------------------|-------------------|
|-11h=====12----11--------|-(11)--------------|
|-12h=====13----12--------|-(12)--------------|
|-------------------------|-------------------|
|-------------------------|-------------------|
|
|  H            +H           +W
|-------------------------|-------------------|
|-13b15--------(13)-------|-(13)--------------|
|-------------------------|-------------------|
|-------------------------|-------------------|
|-------------------------|-------------------|
|-------------------------|-------------------|


       PM----------|
    E  E E E E e E E     Q   Q  Q  Q
|--------------------|----------------|
|--------------------|----------------|
|--------------------|----------------|
|--------------------|----------------|
|------0-0-0-0-0-0-0-|---1S==4--1S=3--|
|------0-0-0-0-0-0-0-|---1S==4--1S=3--|
|
|   W                    W
|--------------------|----------------|
|--------------------|----------------|
|--------------------|----------------|
|--------------------|----------------|
|--------------------|----------------|
|--------------------|----------------|
|
|  +W                   +W
|--------------------|----------------|
|-(13)---------------|-(13)-----------|
|--------------------|----------------|
|--------------------|----------------|
|--------------------|----------------|
|--------------------|----------------|


  Gtrs I, II
   PM-------|      PM-----------|    PM----|
   E    E E E   E  E E E     E  E Q  E E E E
|------------------------|-------------------|
|------------------------|-------------------|
|------------------------|-------------------|
|------------------------|-------------------|
|--0----0-0-0------0-0-0-|---0--0----0-0-0-0-|
|--0----0-0-0------0-0-0-|---0--0----0-0-0-0-|
|
| Gtr III
|  H           +H           +W
|------------------------|-------------------|
|-13b15-------(13)-------|-(13)--------------|
|------------------------|-------------------|
|------------------------|-------------------|
|------------------------|-------------------|
|------------------------|-------------------|


       PM----------|
    E  E E E E e E E     Q   Q  Q  Q
|--------------------|----------------|
|--------------------|----------------|
|--------------------|----------------|
|--------------------|----------------|
|------0-0-0-0-0-0-0-|---1S==4--1S=3--|
|------0-0-0-0-0-0-0-|---1S==4--1S=3--|
|
|  +W                   +W
|--------------------|----------------|
|-(13)---------------|-(13)-----------|
|--------------------|----------------|
|--------------------|----------------|
|--------------------|----------------|
|--------------------|----------------|


   PM-------|      PM-----------|    PM----|
   E    E E E   E  E E E     E  E Q  E E E E
|------------------------|-------------------|
|------------------------|-------------------|
|------------------------|-------------------|
|------------------------|-------------------|
|--0----0-0-0------0-0-0-|---0--0----0-0-0-0-|
|--0----0-0-0------0-0-0-|---0--0----0-0-0-0-|
|
|  H           +H           +W
|------------------------|-------------------|
|-13b15-------(13)-------|-(13)--------------|
|------------------------|-------------------|
|------------------------|-------------------|
|------------------------|-------------------|
|------------------------|-------------------|


       PM----------|
    E  E E E E e E E     Q   Q  Q  Q
|--------------------|----------------|
|--------------------|----------------|
|--------------------|----------------|
|--------------------|----------------|
|------0-0-0-0-0-0-0-|---1S==4--1S=3--|
|------0-0-0-0-0-0-0-|---1S==4--1S=3--|
|
|  +W                   +W
|--------------------|----------------|
|-(13)---------------|-(13)-----------|
|--------------------|----------------|
|--------------------|----------------|
|--------------------|----------------|
|--------------------|----------------|


  Gtrs I, II
   PM-------|      PM-----------|    PM----|
   E    E E E   E  E E E     E  E Q  E E E E
|------------------------|-------------------|
|------------------------|-------------------|
|------------------------|-------------------|
|------------------------|-------------------|
|--0----0-0-0------0-0-0-|---0--0----0-0-0-0-|
|--0----0-0-0------0-0-0-|---0--0----0-0-0-0-|
|
| Gtr III
|  H           +H           +W
|------------------------|-------------------|
|-13b15-------(13)-------|-(13)--------------|
|------------------------|-------------------|
|------------------------|-------------------|
|------------------------|-------------------|
|------------------------|-------------------|


       PM----------|
    E  E E E E e E E     Q   Q  Q  Q
|--------------------|----------------*|
|--------------------|----------------*|
|--------------------|----------------*|
|--------------------|----------------*|
|------0-0-0-0-0-0-0-|---1S==4--1S=3--*|
|------0-0-0-0-0-0-0-|---1S==4--1S=3--*|
|
|  +W                   +W
|--------------------|----------------*|
|-(13)---------------|-(13)-----------*|
|--------------------|----------------*|
|--------------------|----------------*|
|--------------------|----------------*|
|--------------------|----------------*|


Duration Legend
---------------
W - whole; H - half; Q - quarter; E - 8th; S - 16th; T - 32nd; X - 64th; a - acciaccatura
+ - note tied to previous; . - note dotted; .. - note double dotted
Uncapitalized letters represent notes that are staccato (1/2 duration)
Irregular groupings are notated above the duration line
Duration letters will always appear directly above the note/fret number it represents the
duration for.  Duration letters with no fret number below them represent rests.  Multi-
bar rests are notated in the form Wxn, where n is the number of bars to rest for.  Low
melody durations appear below the staff

Tablature Legend
----------------
 h   - hammer-on
 p   - pull-off
 b   - bend
 pb  - pre-bend
 r   - bend release (if no number after the r, then release immediately)
 /\  - slide into or out of (from/to "nowhere")
 s   - legato slide
 S   - shift slide
  - natural harmonic
[n]  - artificial harmonic
n(n) - tapped harmonic
 ~   - vibrato
 tr  - trill
 T   - tap
 TP  - trem. picking
 PM  - palm muting
\n/  - tremolo bar dip; n = amount to dip
 \n  - tremolo bar down
 n/  - tremolo bar up
/n\  - tremolo bar inverted dip
 =   - hold bend; also acts as connecting device for hammers/pulls
 <>  - volume swell (louder/softer)
 x   - on rhythm slash represents muted slash
 o   - on rhythm slash represents single note slash

Misc Legend
-----------
 |  - bar
||  - double bar
||o - repeat start
o|| - repeat end
*|  - double bar (ending)
 :  - bar (freetime)
 $  - Segno
 &  - Coda
Tempo markers -  = BPM(8/16=s8/s16), where s8 = swing 8ths, s16 = swing 16ths
Suggest correction
Creating personal tab
Creating personal tab
You can edit any tab online and save it as your Personal.

You can edit, replace or remove any tab part or add personal notes – all changes will be seen only by you.

Personal tabs can be accessed anytime from any device, even offline.
Learn more »
comments
print report bad tab
2 comments total.
0 reply
metalatw 10 Feb 24, 2010 05:01 PM

Amazing. It would be nice to label the sections though...

0 reply
Shredtohell 30 May 20, 2011 02:19 PM

good tab 5*

guest
You may want to rate the tab now too:
select rating
Wanna post a correction for this tab? Suggest correction