Oops, an error
Loading. Please wait.

Faded Line tab

version 6
1,161 views 9 this week
3 commentsread comments
1 2 3 4 5
x 6
add to favorites
×
Save as Personal and add changes to this tab that will be seen only by you. Learn more ›
×
You can save this tab as Personal to edit and correct it or add notes. All changes will be seen only by you. Learn more »
launch autoscroll
font size
0
reset
how to read this tab
guitar tuner
edit
Autoscroll
slow
fast
+/-
esc
set tempo
stop
|--------------------------------------------------------------------------------------------------------|
|                                        LAMB OF GOD - FADED LINE                                        |
|                                     Album: Ashes of the Wake (2004)                                    |
|--------------------------------------------------------------------------------------------------------|

                   If you have questions or corrections feel free to send me a message:
                                http://profile.ultimate-guitar.com/godspeedy/
                                    https://www.facebook.com/Godspeedy14
                     
                Also, check out my Youtube channel: http://www.youtube.com/user/Godspeedy14

                                         Tuning: 6 string DADGBE 
                                                    
*********************************************GUITAR NOTATIONS*********************************************
*                                                                                                        *
*                                      | *   palm mute           |                                       *
*                                      | s   slide               |                                       *
*                                      | s\  slide downwards     |                                       *
*                                      | h   hammer-on           |                                       *
*                                      | p   pull-off            |                                       *
*                                      | ~   vibrato             |                                       *
*                                      | +   pinch harmonics     |                                       *
*                                      | x   Mute note           |                                       *
*                                      | b   bend                |                                       *
*                                      | r   release             |                                       *
*                                      | br  bend release        |                                       *
*                                      | pb  pre-bend            |                                       *
*                                      | ..  let ring            |                                       * 
*                                      | \\  whammy down         |                                       *
*                                      | //  whammy up           |                                       *
*                                      | П   downstroke          |                                       *
*                                      | V   upstroke            |                                       *
*                                                                                                        *
**********************************************************************************************************

|--------------------------------------------------------------------------------------------------------|
|                                          INTRO (00:00-00:21)                                           |
|--------------------------------------------------------------------------------------------------------|

Guitars 1 and 2 (w/ dist)

   П V П   П V   V П   V П   V П   V П   V П   V П   П V П   П V   V П   V П   V П   V П   V П   V П
E|-------------------------------------------------|--------------------------------------------------|
B|-------------------------------------------------|--------------------------------------------------|
G|-------------------------------------------------|--------------------------------------------------|
D|-------------------------------------------------|--------------------------------------------------|
A|-------------------------------------------------|--------------------------------------------------|
D|-0-0-0--16-0--16-0--16-0--16-0--16-0--16-0--16-0-|-0-0-0--15-0--15-0--15-0--15-0--15-0--15-0--15-0--|
   * * *     *     *     *     *     *     *     *   * * *     *     *     *     *     *     *     *   \
                                                                                                        x2
   П V П   П V   V П   V П   V П   V П   V П   V П   П V П   П V   V П   V П   V  П  V  П  V  П  V  П  /
E|-------------------------------------------------|--------------------------------------------------|
B|-------------------------------------------------|--------------------------------------------------|
G|-------------------------------------------------|--------------------------------------------------|
D|-------------------------------------------------|--------------------------------------------------|
A|-------------------------------------------------|--------------------------16-13-12-17-12----------|
D|-0-0-0--18-0--18-0--18-0--13-0--13-0--13-0--13-0-|-0-0-0--12-0--12-0--12-0-----------------16-17-13-|
   * * *     *     *     *     *     *     *     *   * * *     *     *     *

|--------------------------------------------------------------------------------------------------------|
|                                          VERSE (00:21-00:42)                                           |
|--------------------------------------------------------------------------------------------------------|
                                             same as INTRO
|--------------------------------------------------------------------------------------------------------|
|                                          BRIDGE (00:42-01:03)                                          |
|--------------------------------------------------------------------------------------------------------|

Guitars 1 and 2 (w/ dist)

   П V П  П V П  П V П  П V П  П V П  П V П  П V П  П V П --------| 
E|--------------------------------------------------------|       |
B|--------------------------------------------------------|       |
G|--------------------------------------------------------|       |
D|--------------------------------------------------------|       |
A|--------------------------------------------------------|       |
D|-0-0-0--0-0-0--0-0-0--0-0-0--0-0-0--0-0-0--0-0-0--0-0-0-|       |
   * * *  * * *  * * *  * * *  * * *  * * *  * * *  * * *         |
                                                                  |
       П V П  П V П  П V П  П V П  П V П  П V П  П V П V          |
E|-------------------------------------------------------|        |
B|-------------------------------------------------------|        |
G|-------------------------------------------------------|        |
D|-------------------------------------------------------|        | 
A|-------------------------------------------------------|        |
D|-----0-0-0--0-0-0--0-0-0--0-0-0--0-0-0--0-0-0--5-4-1-0-|        |
       * * *  * * *  * * *  * * *  * * *  * * *  * * * *          |
                                                                  | x2 
   П    П V П  П V П  П V П  П V П  П V П  П V П                  |
E|------------------------------------------------|               |
B|------------------------------------------------|               |
G|------------------------------------------------|               |
D|-3----------------------------------------------|               |
A|-3----------------------------------------------|               |
D|-3----3-3-3--3-3-3--3-3-3--3-3-3--3-3-3--3-3-3--|               |
        * * *  * * *  * * *  * * *  * * *  * * *                  |
                                                                  |
       П V П  П V П  П V П  П V П  П V П  П V П V П V П V         |  
E|--------------------------------------------------------|       |
B|--------------------------------------------------------|       |
G|--------------------------------------------------------|       |
D|--------------------------------------------------------|       |
A|--------------------------------------------------------|       |
D|-----3-3-3--3-3-3--3-3-3--4-4-4--4-4-4--5-4-1-0-5-4-1-0-|       |
       * * *  * * *  * * *  * * *  * * *  * * * * * * * * --------|

|--------------------------------------------------------------------------------------------------------|
|                                        PRE-CHORUS (01:03-01:31)                                        |
|--------------------------------------------------------------------------------------------------------|

I. Guitar 1 (w/ dist)

                                 П   П
E|-------------------|-------------------|
B|-------------------|-------------------|
G|-------------------|-------------------|
D|-------------------|-------------------|
A|-------------------|--------------19s\-|
D|-------------------|-----------0--19s\-|
                                 * 

   Guitar 2 (w/ dist)

   П  П  П  П  П  П  П  П  П  П  П  П   П  V  П V  П  V  П  V
E|------------------------------------------------------------|
B|------------------------------------------------------------|
G|------------------------------------------------------------|
D|------------------------------------------------------------|
A|------------------------------------------------------------|
D|-0--0--0--0--0--0--0--0--0--0--0--0--19-15-14-0-18-14-13-17-|
   *  *  *  *  *  *  *  *  *  *  *  *       

   П  П  П  П  П  П  П  П  П  П  П  П  П  П   П
E|------------------------------------------------|
B|------------------------------------------------|
G|------------------------------------------------|
D|------------------------------------------------|
A|-------------------------------------------19s\-|
D|-0--0--0--0--0--0--0--0--0--0--0--0--0--0--19s\-|
   *  *  *  *  *  *  *  *  *  *  *  *  *  *

II. Guitars 1 and 2 (w/ dist)

   П  П  П  П  П  П  П  П  П  П  П  П   П  V  П V  П  V  П  V
E|------------------------------------------------------------|
B|------------------------------------------------------------|
G|------------------------------------------------------------| x4
D|------------------------------------------------------------|
A|------------------------------------------------------------|
D|-0--0--0--0--0--0--0--0--0--0--0--0--19-15-14-0-18-14-13-17-|
   *  *  *  *  *  *  *  *  *  *  *  *  

   П  П V П  П V П  П V П  П V П  П V П  П V  П  V  П V  П  V  П  V
E|------------------------------------------------------------------|
B|------------------------------------------------------------------|
G|------------------------------------------------------------------| x4
D|------------------------------------------------------------------|
A|------------------------------------------------------------------|
D|-0--0-0-0--0-0-0--0-0-0--0-0-0--0-0-0--0-0-19-15-14-0-18-14-13-17-|
   *  * * *  * * *  * * *  * * *  * * *  * *

|--------------------------------------------------------------------------------------------------------|
|                                          CHORUS (01:31-01:48)                                          |
|--------------------------------------------------------------------------------------------------------|

Guitars 1 and 2 (w/ dist)

   П V П V П  П V П  П V  П  П V  П  П V  П  П V П  П V П  П V
E|-------------------------------------------------------------|
B|-------------------------------------------------------------|
G|-------------------------------------------------------------|
D|-------------------------------------------------------------|
A|---------7------8------10------12------10------8------7------|
D|-8-8-8-8----8-8----8-8-----8-8-----8-8-----8-8----8-8----8-8-|
   * * * *    * *    * *     * *     * *     * *    * *    * *

   П V П V П  П V П  П V П  П V П  П V П  П V П       П 
E|------------------------------------------------------------|
B|------------------------------------------------------------|
G|------------------------------------------------------------|
D|-----------------------5------7------5----------------------|
A|---------7------8---------------------------5h8p5p0-4h7p4p0-|
D|-5-5-5-5----5-5----5-5----5-5----5-5----5-5-----------------|
   * * * *    * *    * *    * *    * *    * *

   П  П V П  П V П  П V П  П V П  П V П  П V  П  V  П V  П  V  П  V
E|------------------------------------------------------------------|
B|------------------------------------------------------------------|
G|------------------------------------------------------------------| x2
D|------------------------------------------------------------------|
A|------------------------------------------------------------------|
D|-0--0-0-0--0-0-0--0-0-0--0-0-0--0-0-0--0-0-19-15-14-0-18-14-13-17-|
   *  * * *  * * *  * * *  * * *  * * *  * *

   П V П V П  П V П  П V  П  П V  П  П V  П  П V П  П V П  П V
E|-------------------------------------------------------------|
B|-------------------------------------------------------------|
G|-------------------------------------------------------------|
D|-------------------------------------------------------------|
A|---------7------8------10------12------10------8------7------|
D|-8-8-8-8----8-8----8-8-----8-8-----8-8-----8-8----8-8----8-8-|
   * * * *    * *    * *     * *     * *     * *    * *    * *

   П V П V П  П V П  П V П  П V П  П V П  П V П       П 
E|------------------------------------------------------------|
B|------------------------------------------------------------|
G|------------------------------------------------------------|
D|-----------------------5------7------5----------------------|
A|---------7------8---------------------------5h8p5p0-4h7p4p0-|
D|-5-5-5-5----5-5----5-5----5-5----5-5----5-5-----------------|
   * * * *    * *    * *    * *    * *    * *

|--------------------------------------------------------------------------------------------------------|
|                                        BRIDGE 2 (01:48-02:45)                                          |
|--------------------------------------------------------------------------------------------------------|

I. Guitars 1 and 2 (w/ dist)

   П V П V П V П V П     П V П V П V П V П      П V П V П V П V П     П V П V П V П V П V П V П V П V
E|--------------------------------------------|-------------------------------------------------------|
B|--------------------------------------------|-------------------------------------------------------|
G|--------------------------------------------|-------------------------------------------------------| x2
D|--------------------------------------------|-------------------------------------------------------|
A|--------------------------------------------|-------------------------------------------------------|
D|-0-0-0-0-0-0-0-0-0-----0-0-0-0-0-0-0-0-0----|-0-0-0-0-0-0-0-0-0-----0-0-0-0-0-0-0-0-1-4-1-0-1-4-1-0-|
   * * * * * * * * *     * * * * * * * * *      * * * * * * * * *     * * * * * * * * * * * * * * * *

II. Guitars 1 and 2 (w/ dist)

   П V П V П V П V П     П V П V П V П V П      П V П V П V П V П     П V П V П V П V П
E|--------------------------------------------|--------------------------------------------|
B|--------------------------------------------|--------------------------------------------|
G|--------------------------------------------|--------------------------------------------| x3
D|--------------------------------------------|--------------------------------------------|
A|--------------------------------------------|--------------------------------------------|
D|-0-0-0-0-0-0-0-0-0-----0-0-0-0-0-0-0-0-0----|-0-0-0-0-0-0-0-0-0-----0-0-0-0-0-0-0-0-0----|
   * * * * * * * * *     * * * * * * * * *      * * * * * * * * *     * * * * * * * * *

   П V П V П V П V П     П V П V П V П V П      П V П V П V П V П     П V П V П V П V П V П V П
E|--------------------------------------------|----------------------------------------------------|
B|--------------------------------------------|----------------------------------------------------|
G|--------------------------------------------|----------------------------------------------------|
D|--------------------------------------------|----------------------------------------------------|
A|--------------------------------------------|----------------------------------------------------|
D|-0-0-0-0-0-0-0-0-0-----0-0-0-0-0-0-0-0-0----|-0-0-0-0-0-0-0-0-0-----0-0-0-0-0-0-0-0-1-4-1-0-10~~~|
   * * * * * * * * *     * * * * * * * * *      * * * * * * * * *     * * * * * * * * * * * *

    Guitar 3 (w/ dist)
  
         П     П     П   V  П   V  П  V         П     П     П   П  V   П  V
E|--------------------------------------|------------------------------------|
B|--------------------------------------|------------------------------------|
G|--------------------------------------|------------------------------------| x4
D|--------------------------------------|------------------------------------|
A|--------------------------------------|------------------------------------|
D|------12s13-12s13-17~~13-12--13-13-10-|------12s13-12s13-17~~13-12--13-10~~|

    Guitar 4 (w/ dist)

4 bars empty, then:

         П     П     П   V  П   V  П  V         П     П     П   П  V   П  V
E|--------------------------------------|------------------------------------|
B|--------------------------------------|------------------------------------|
G|--------------------------------------|------------------------------------| x2
D|--------------------------------------|------------------------------------|
A|------12s13-12s13-17~~13-12--13-13-10-|------12s13-12s13-17~~13-12--13-10~~|
D|--------------------------------------|------------------------------------|

III. Guitars 1 and 2 (w/ dist)

   П  П  П  П  П  П  П  П  П  П  П  П  П  П  П  П   П  П  П  П  П  П  П  П  П  П  П  П  П V П V П V П V
E|------------------------------------------------|-----------------------------------------------------|
B|------------------------------------------------|-----------------------------------------------------|
G|------------------------------------------------|-----------------------------------------------------| x3
D|-------8--------8-----7--------7--------7-----4-|-------4--------4-----3--------3---------------------|
A|-------10-------10----9--------9--------9-----6-|-------6--------6-----5--------5---------------------|
D|-0--0--8--0--0--8--0--7--0--0--7--0--0--7--0--4-|-0--0--4--0--0--4--0--3--0--0--3--0--1-4-1-0-1-4-1-0-|
   *  *     *  *     *     *  *     *  *     *      *  *     *  *     *     *  *     *  * * * * * * * *

   П  П  П  П  П  П  П  П  П  П  П  П  П  П  П  П   П  П  П  П  П  П  П  П  П  П  П  П  П V П V  П
E|------------------------------------------------|---------------------------------------------------|
B|------------------------------------------------|---------------------------------------------------|
G|------------------------------------------------|----------------------7--------7-------------------|
D|-------8--------8-----7--------7--------7-----1-|-------1--------1-----7--------7-------------------|
A|-------10-------10----9--------9--------9-----3-|-------3--------3-----5--------5-------------------|
D|-0--0--8--0--0--8--0--7--0--0--7--0--0--7--0--1-|-0--0--1--0--0--1--0-----0--0-----0--0-0-0-0-13s\~~|
   *  *     *  *     *     *  *     *  *     *      *  *     *  *     *     *  *     *  * * * *
     
|--------------------------------------------------------------------------------------------------------|
|                                       PRE-CHORUS 2 (02:45-03:08)                                       |
|--------------------------------------------------------------------------------------------------------|

I. Guitar 1 (w/ dist)

   П V П   П V   V П   V П   V П   V П   V П   V П   П V П   П V   V П   V П   V П   V П   V П   V П
E|-------------------------------------------------|--------------------------------------------------|
B|-------------------------------------------------|--------------------------------------------------|
G|-------------------------------------------------|--------------------------------------------------|
D|-------------------------------------------------|--------------------------------------------------|
A|-------------------------------------------------|--------------------------------------------------|
D|-0-0-0--16-0--16-0--16-0--16-0--16-0--16-0--16-0-|-0-0-0--15-0--15-0--15-0--15-0--15-0--15-0--15-0--|
   * * *     *     *     *     *     *     *     *   * * *     *     *     *     *     *     *     * 
                                                                                                  
   П V П   П V   V П   V П   V П   V П   V П   V П   П V П   П V   V П   V П   V  П  V  П  V  П  V  П 
E|-------------------------------------------------|--------------------------------------------------|
B|-------------------------------------------------|--------------------------------------------------|
G|-------------------------------------------------|--------------------------------------------------|
D|-------------------------------------------------|--------------------------------------------------|
A|-------------------------------------------------|--------------------------16-13-12-17-12----------|
D|-0-0-0--18-0--18-0--18-0--13-0--13-0--13-0--13-0-|-0-0-0--12-0--12-0--12-0-----------------16-17-13-|
   * * *     *     *     *     *     *     *     *   * * *     *     *     *

   Guitar 2 (w/ dist)

   П V П   П V   V П   V П   V П   V П   V П   V П   П V П   П V   V П   V П   V П   V П   V П   V П
E|-------------------------------------------------|--------------------------------------------------|
B|-------------------------------------------------|--------------------------------------------------|
G|-------------------------------------------------|--------------------------------------------------|
D|-------------------------------------------------|--------------------------------------------------|
A|-------------------------------------------------|--------------------------------------------------|
D|-0-0-0--16-0--16-0--16-0--16-0--16-0--16-0--16-0-|-0-0-0--15-0--15-0--15-0--15-0--15-0--15-0--15-0--|
   * * *     *     *     *     *     *     *     *   * * *     *     *     *     *     *     *     * 

   П V П   П V   V П   V П   V П   V П   V П   V П   П V П   П V   V П   V П
E|-------------------------------------------------|--------------------------------------------------|
B|-------------------------------------------------|--------------------------------------------------|
G|-------------------------------------------------|--------------------------------------------------|
D|-------------------------------------------------|--------------------------------------------------|
A|-------------------------------------------------|--------------------------------------------------|
D|-0-0-0--18-0--18-0--18-0--13-0--13-0--13-0--13-0-|-0-0-0--12-0--12-0--12-0--------------------------|
   * * *     *     *     *     *     *     *     *   * * *     *     *     *

II. Guitars 1 and 2 (w/ dist)

   П  П V П  П V П  П V П  П V П  П V П  П V  П  V  П V  П  V  П  V
E|------------------------------------------------------------------|
B|------------------------------------------------------------------|
G|------------------------------------------------------------------| x4
D|------------------------------------------------------------------|
A|------------------------------------------------------------------|
D|-0--0-0-0--0-0-0--0-0-0--0-0-0--0-0-0--0-0-19-15-14-0-18-14-13-17-|
   *  * * *  * * *  * * *  * * *  * * *  * *

|--------------------------------------------------------------------------------------------------------|
|                                         CHORUS 2 (03:08-03:25)                                         |
|--------------------------------------------------------------------------------------------------------|
                                              same as CHORUS
|--------------------------------------------------------------------------------------------------------|
|                                          OUTRO (03:25-04:37)                                           |
|--------------------------------------------------------------------------------------------------------|

I. Guitars 1 and 2 (w/ dist)

   П V П V П  П V П  П V  П  П V  П  П V  П  П V П  П V П  П V
E|-------------------------------------------------------------|
B|-------------------------------------------------------------|
G|-------------------------------------------------------------|
D|-------------------------------------------------------------|
A|---------7------8------10------12------10------8------7------|
D|-8-8-8-8----8-8----8-8-----8-8-----8-8-----8-8----8-8----8-8-|
   * * * *    * *    * *     * *     * *     * *    * *    * *

   П V П V П  П V П  П V П  П V  П  V  П  V  П   П  V  П   П  V  П
E|--------------------------------------------------------------------|
B|--------------------------------------------------------------------|
G|--------------------------------------------------------------------|
D|--------------------------------------------------------------------|
A|---------7------8------7------------------12--------13--------13p12-|
D|-5-5-5-5----5-5----5-5----5-5s11-11-11-11-11--11-11-11--11-11-11----|
   * * * *    * *    * *    * * *  *  *  *      *  *      *  *

II. Guitar 1 (w/ dist)

   П V П V   П V П V П    П V П V   П V П V П V П П   П  П   П
E|--------------------------------------------------------------|
B|--------------------------------------------------------------|
G|--------------------------------------------------------------| x2
D|------------------------------------------------1s4-7--1s3-6--|
A|-0-0-0-0---0-0-0-0-0----0-0-0-0---0-0-0-0-0-----1s4-4--1s3-3--|
D|-0-0-0-0---0-0-0-0-0----0-0-0-0---0-0-0-0-0-0-0-1s4-4--1s3-3--|
   * * * *   * * * * *    * * * *   * * * * * * * 

   Guitar 2 (w/ dist)

   П.................... П   П  П   П
E|---------------|---------------------|
B|---------------|---------------------|
G|---------------|---------------------|
D|-0-------------|-------1s4-7--1s3-6--|
A|-0-------------|-------1s4-4--1s3-3--|
D|-0-------------|-------1s4-4--1s3-3--|

III. Guitars 1 and 2 (w/ dist)

   П V П V   П V П V П    П V П V   П V П V П V П П   П  П   П
E|--------------------------------------------------------------|
B|--------------------------------------------------------------|
G|--------------------------------------------------------------| x12
D|------------------------------------------------1s4-7--1s3-6--|
A|-0-0-0-0---0-0-0-0-0----0-0-0-0---0-0-0-0-0-----1s4-4--1s3-3--|
D|-0-0-0-0---0-0-0-0-0----0-0-0-0---0-0-0-0-0-0-0-1s4-4--1s3-3--|
   * * * *   * * * * *    * * * *   * * * * * * * 

Guitar 3 (w/ dist)

    П       П       П       П       П      П    П       П       П       П      П  П  П
E|-------------------------------------------|-------------------------------------------|
B|-------------------------------------------|-------------------------------------------|
G|-14s7----15s7----17s7----15s7----14s5----8-|s14s7----15s7----17s7----15s7----8--8--8---|
D|--x-x-----x-x-----x-x-----x-x-----x-x----x-|--x-x-----x-x-----x-x-----x-x----x--x--x---|
A|-12s5----13s5----15s5----13s5----12s3----6-|s12s5----13s5----15s5----13s5----6--6--6---|
D|-------------------------------------------|-------------------------------------------|

    П       П       П       П       П      П    П       П       П       П       П      П
E|-------------------------------------------|--------------------------------------------|
B|-------------------------------------------|--------------------------------------------| x2
G|s14s7----15s7----17s7----15s7----14s5----8-|s14s7----15s7----17s7----15s7----14s5----8--|
D|--x-x-----x-x-----x-x-----x-x-----x-x----x-|--x-x-----x-x-----x-x-----x-x-----x-x----x--|
A|s12s5----13s5----15s5----13s5----12s3----6-|s12s5----13s5----15s5----13s5----12s3----6--|
D|-------------------------------------------|--------------------------------------------|

    П        П
E|------------------------|
B|------------------------|
G|s14-7-----15-7----------|
D|--x-x------x-x----------|
A|s12-5-----13-5----------|
D|------------------------|

Guitar 4 (w/ dist)

3 bars empty, then: 

         П     П      П      V  П       V       П     П
E|--------------------------------------------|--------------|--------|--------|
B|--------------------------------------------|--------------|--------|--------|
G|-------7-s8--8-s11-11-h12-12-11h12p11s8-s7--|-7-h8--7~~~~~~|~~~~~~~~|~~~~~~~~| x2
D|--------------------------------------------|--------------|--------|--------|
A|--------------------------------------------|--------------|--------|--------|
D|--------------------------------------------|--------------|--------|--------|

Guitar 5 (w/ dist)

3 bars empty, then:

         П     П      П      V  П       V       П     П
E|--------------------------------------------|--------------|--------|--------|
B|-------6-s7--7-s10-10-h11-11-10h11p10s8-s7--|-7-h8--7~~~~~~|~~~~~~~~|~~~~~~~~|
G|--------------------------------------------|--------------|--------|--------| x2
D|--------------------------------------------|--------------|--------|--------|
A|--------------------------------------------|--------------|--------|--------|
D|--------------------------------------------|--------------|--------|--------|

Guitar 6 (w/ dist and digitech whammy)

   П
E|-\10///~~~~~--------|
B|--------------------|
G|--------------------| x12
D|--------------------|
A|--------------------|
D|--------------------|

Guitar 7 (w/ dist and digitech whammy)

      П
E|----\10///~~~~~-----|
B|--------------------|
G|--------------------| x12
D|--------------------|
A|--------------------|
D|--------------------|



            
            
Suggest correction
Creating personal tab
Creating personal tab
You can edit any tab online and save it as your Personal.

You can edit, replace or remove any tab part or add personal notes – all changes will be seen only by you.

Personal tabs can be accessed anytime from any device, even offline.
Learn more »
comments
print report bad tab
3 comments total.
+1 reply
P_Trik 5,928 Jun 12, 2015 08:34 AM

Great to see you on UG FrontPage under featured tabs again :) great attention to detail and another awesome contribution. 5 stars

+1 reply
shadow900 1,692 Jun 16, 2015 03:24 AM

Nice work on this tab dude my favourite lamb of god song on ashes of the wake keep up the awesome work

guest
You may want to rate the tab now too:
select rating
Wanna post a correction for this tab? Suggest correction