Oops, an error
Loading. Please wait.

Fake Messiah bass

version 1
version 1

Whole song

Interactive

1,748 views 1 this week
no commentswrite comment
1 2 3 4 5
2 more votes to show rating
add to favorites
×
Save as Personal and add changes to this tab that will be seen only by you. Learn more ›
×
You can save this tab as Personal to edit and correct it or add notes. All changes will be seen only by you. Learn more »
launch autoscroll
font size
0
reset
guitar tuner
backing track
0:00
0:00
edit
Autoscroll
slow
fast
+/-
esc
set tempo
stop
-------------------------------------------------------------------------------
FAKE MESSIAH - Lamb Of God
-------------------------------------------------------------------------------

Tabbed by: van_halen_fan

Tuning: Drop-C# (from low to high: C#,G#,C#,F#)

               E Q  Q  E   Q  E E E E   E Q  Q  E   Q  E E E E  6x
F#|--------||------------|------------|-----------|-------------||
C#|-16-bar-||*-----------|------------|-----------|------------*||
G#|--rest--||*-----------|------------|-----------|------------*||
C#|--------||--0-0--0--0-|-0--0-0-0-0-|-0-0--0--0-|-0--0-0-0-0--||


      Q  Q  Q  + H.        Q  Q  Q    Q  E E E E   Q  Q  Q    Q  E E E E
F#||-----------|--------||----------|------------|----------|------------|
C#||*----------|-------*||----------|------------|----------|------------|
G#||*----------|-------*||----------|------------|----------|------------|
C#||--0--0--0--|(0)-----||-2--2--2--|-2--2-2-2-2-|-3--3--3--|-3--3-3-3-3-|


      Q  Q  Q  + H.        Q  Q  Q    Q  E E E E   Q  Q  Q    Q  Q  Q
F#||-----------|--------||----------|------------|----------|----------|
C#||*----------|-------*||----------|------------|----------|----------|
G#||*----------|-------*||----------|------------|----------|----------|
C#||--0--0--0--|(0)-----||-2--2--2--|-2--2-2-2-2-|-3--3--3--|-6--6--6--|


    E E E E E E   E E E E E E   E E E E E E   E E E E E E
F#|-------------|-------------|-------------|-------------|
C#|-------------|-------------|-------------|-------------|
G#|-----5---5---|-------------|-------5-----|---6-----3---|
C#|-0-3---3---3-|-0-0-0-0-0-0-|-0-5-6---6-5-|-4---4-1---1-|


    E E E E E E   E E E E E E   E E E E E E   E E E E E E
F#|-------------|-------------|-------------|-------------|
C#|-------------|-------------|-------------|-------------|
G#|-----5---5---|-------------|-----3---3---|-----8---8---|
C#|-0-3---3---3-|-0-0-0-0-0-0-|-0-1---1---1-|-0-6---6---6-|


    E E E E E E   E E E E E E   E E E E E E   E E E E E E
F#|-------------|-------------|-------------|-------------|
C#|-------------|-------------|-------------|-------------|
G#|-----5---5---|-------------|-------5-----|---6-----3---|
C#|-0-3---3---3-|-0-0-0-0-0-0-|-0-5-6---6-5-|-4---4-1---1-|


    E E E E E E   E E E E E E   E E E E E E   E E E E E E
F#|-------------|-------------|-------------|-------------|
C#|-------------|-------------|-------------|-------------|
G#|-----5---5---|-------------|-----3---3---|-----1---0---|
C#|-0-3---3---3-|-0-0-0-0-0-0-|-0-1---1---1-|-0-1---1---1-|


    Q  Q  Q    Q  Q  Q    E E E E E E   E E E E E E    
F#|-r--r--r--|-r--r--r--|-------------|-------------|
C#|-e--e--e--|-e--e--e--|-------------|-------------|
G#|-s--s--s--|-s--s--s--|-------------|-------------|
C#|-t--t--t--|-t--t--t--|-0-0-0-0-0-0-|-0-0-0-0-0-0-|


      E Q  Q  E   Q  E E E E   E Q  Q  E   Q  E E E E  6x
F#||------------|------------|-----------|-------------||
C#||*-----------|------------|-----------|------------*||
G#||*-----------|------------|-----------|------------*||
C#||--0-0--0--0-|-0--0-0-0-0-|-0-0--0--0-|-0--0-0-0-0--||


      Q  Q  Q  + H.        Q  Q  Q    Q  E E E E   Q  Q  Q    Q  E E E E
F#||-----------|--------||----------|------------|----------|------------|
C#||*----------|-------*||----------|------------|----------|------------|
G#||*----------|-------*||----------|------------|----------|------------|
C#||--0--0--0--|(0)-----||-2--2--2--|-2--2-2-2-2-|-3--3--3--|-3--3-3-3-3-|


      Q  Q  Q  + H.        Q  Q  Q    Q  E E E E   Q  Q  Q    Q  Q  Q
F#||-----------|--------||----------|------------|----------|----------|
C#||*----------|-------*||----------|------------|----------|----------|
G#||*----------|-------*||----------|------------|----------|----------|
C#||--0--0--0--|(0)-----||-2--2--2--|-2--2-2-2-2-|-3--3--3--|-6--6--6--|


     E E E E E E   E E E E E E   E E E E E E   E E E E E E
F#||--------------|-------------|-------------|-------------|
C#||*-------------|-------------|-------------|-------------|
G#||*-----5---5---|-------------|-------5-----|---6-----3---|
C#||--0-3---3---3-|-0-0-0-0-0-0-|-0-5-6---6-5-|-4---4-1---1-|


    E E E E E E   E E E E E E   E E E E E E   E E E E E E
F#|-------------|-------------|-------------|-------------|
C#|-------------|-------------|-------------|-------------|
G#|-----5---5---|-------------|-----3---3---|-----8---8---|
C#|-0-3---3---3-|-0-0-0-0-0-0-|-0-1---1---1-|-0-6---6---6-|


    E E E E E E   E E E E E E   E E E E E E   E E E E E E
F#|-------------|-------------|-------------|-------------|
C#|-------------|-------------|-------------|-------------|
G#|-----5---5---|-------------|-------5-----|---6-----3---|
C#|-0-3---3---3-|-0-0-0-0-0-0-|-0-5-6---6-5-|-4---4-1---1-|


    E E E E E E   E E E E E E   E E E E E E   E E E E E E
F#|-------------|-------------|-------------|--------------||
C#|-------------|-------------|-------------|-------------*||
G#|-----5---5---|-------------|-----3---3---|-----1---0---*||
C#|-0-3---3---3-|-0-0-0-0-0-0-|-0-1---1---1-|-0-1---1---1--||


      E Q  Q  E   E Q  Q  E   E Q  Q  E   Q  Q  Q   4x
F#||------------|-----------|-----------|-----------||
C#||*-----------|-----------|-----------|----------*||
G#||*-----------|-----------|-----------|----------*||
C#||--6-6--6--6-|-6-6--6--6-|-6-6--6--0-|-3--3--3---||


      E E Q  Q    Q  Q  Q    E E Q  Q    E E E E E E 
F#||------r--r--|-r--r--r--|-----r--r--|-------------|
C#||*-----e--e--|-e--e--e--|-----e--e--|-------------|
G#||*-----s--s--|-s--s--s--|-----s--s--|-------------|
C#||--0-0-t--t--|-t--t--t--|-0-0-t--t--|-0-0-0-0-0-0-|


    E E Q  Q    Q  Q  Q    E E Q  Q    E E Q  Q
F#|-----r--r--|-r--r--r--|-----r--r--|-----r--r---||
C#|-----e--e--|-e--e--e--|-----e--e--|-----e--e--*||
G#|-----s--s--|-s--s--s--|-----s--s--|-----s--s--*||
C#|-0-0-t--t--|-t--t--t--|-0-0-t--t--|-0-0-t--t---||


      E E E E E E   E E E E E E   E E E E E E   E E E E E E
F#||--------------|-------------|-------------|-------------|
C#||*-------------|-------------|-------------|-------------|
G#||*-------------|-------------|-------------|-------------|
C#||--0-0-7-0-7-0-|-7-0-7-0-7-0-|-0-0-7-0-7-0-|-0-0-0-0-0-0-|


    E E E E E E   E E E E E E   E E E E E E   E E E E E E  3x
F#|-------------|-------------|-------------|--------------||
C#|-------------|-------------|-------------|-------------*||
G#|-------------|-------------|-------------|-------------*||
C#|-0-0-3-0-3-0-|-3-0-3-0-3-0-|-0-0-8-0-8-0-|-0-0-6-0-6-0--||


    E E E E E E   E E E E E E   E E E E E E   E E E E E E
F#|-------------|-------------|-------------|-------------|
C#|-------------|-------------|-------------|-------------|
G#|-------------|-------------|-------------|-------------|
C#|-0-0-7-0-7-0-|-7-0-7-0-7-0-|-0-0-7-0-7-0-|-0-0-0-0-0-0-|

    E E E E E E   E E E E E E   E E E E E E   E E E E E E
F#|-------------|-------------|-------------|-------------|
C#|-------------|-------------|-------------|-------------|
G#|-------------|-------------|-------------|-------------|
C#|-0-0-3-0-3-0-|-3-0-3-0-3-0-|-0-0-2-0-2-0-|-0-0-1-0-1-0-|


    E E E E E E   E E E E E E   E E E E E E   E E E E E E
F#|-------------|-------------|-------------|-------------|
C#|-------------|-------------|-------------|-------------|
G#|-------------|-------------|-------------|-------------|
C#|-0-0-7-0-7-0-|-7-0-7-0-7-0-|-0-0-7-0-7-0-|-0-0-0-0-0-0-|


    E E E E E E   E E E E E E   E E E E E E   E E E E E E
F#|-------------|-------------|-------------|-------------|
C#|-------------|-------------|-------------|-------------|
G#|-------------|-------------|-------------|-------------|
C#|-0-0-3-0-3-0-|-3-0-3-0-3-0-|-0-0-8-0-8-0-|-0-0-6-0-6-0-|


    E E E E E E   E E E E E E   E E E E E E   E E E E E E
F#|-------------|-------------|-------------|-------------|
C#|-------------|-------------|-------------|-------------|
G#|-------------|-------------|-------------|-------------|
C#|-0-0-7-0-7-0-|-7-0-7-0-7-0-|-0-0-7-0-7-0-|-0-0-0-0-0-0-|


    E E E E E E   E E E E E E   E E E E E E   E E H
F#|-------------|-------------|-------------|-----------|
C#|-------------|-------------|-------------|-----------|
G#|-------------|-------------|-------------|-----------|
C#|-0-0-3-0-3-0-|-3-0-3-0-3-0-|-0-0-2-0-2-0-|-0-0-15\---|


      Q  Q  Q    E E E E E E     Q  Q  Q    Q  E E E E
F#||-----------|--------------||----------|------------|
C#||*----------|-------------*||----------|------------|
G#||*----------|-------------*||----------|------------|
C#||--0--0--0--|-0-0-0-0-0-0--||-2--2--2--|-2--2-2-2-2-|


    Q  Q  Q    Q  E E E E     Q  Q  Q  + H.
F#|----------|------------||-----------|--------||
C#|----------|------------||*----------|-------*||
G#|----------|------------||*----------|-------*||
C#|-3--3--3--|-3--3-3-3-3-||--0--0--0--|(0)-----||


    Q  Q  Q    Q  E E E E   Q  Q  Q    Q  Q  Q
F#|----------|------------|----------|----------|
C#|----------|------------|----------|----------|
G#|----------|------------|----------|----------|
C#|-2--2--2--|-2--2-2-2-2-|-3--3--3--|-6--6--6--|


     E E E E E E   E E E E E E   E E E E E E   E E E E E E
F#||--------------|-------------|-------------|-------------|
C#||*-------------|-------------|-------------|-------------|
G#||*-----5---5---|-------------|-------5-----|---6-----3---|
C#||--0-3---3---3-|-0-0-0-0-0-0-|-0-5-6---6-5-|-4---4-1---1-|


    E E E E E E   E E E E E E   E E E E E E   E E E E E E
F#|-------------|-------------|-------------|-------------|
C#|-------------|-------------|-------------|-------------|
G#|-----5---5---|-------------|-----3---3---|-----8---8---|
C#|-0-3---3---3-|-0-0-0-0-0-0-|-0-1---1---1-|-0-6---6---6-|


    E E E E E E   E E E E E E   E E E E E E   E E E E E E
F#|-------------|-------------|-------------|-------------|
C#|-------------|-------------|-------------|-------------|
G#|-----5---5---|-------------|-------5-----|---6-----3---|
C#|-0-3---3---3-|-0-0-0-0-0-0-|-0-5-6---6-5-|-4---4-1---1-|


    E E E E E E   E E E E E E   E E E E E E   E E E E E E
F#|-------------|-------------|-------------|--------------||
C#|-------------|-------------|-------------|-------------*||
G#|-----5---5---|-------------|-----3---3---|-----1---0---*||
C#|-0-3---3---3-|-0-0-0-0-0-0-|-0-1---1---1-|-0-1---1---1--||


    Q  Q  Q    E E E E E E   Q  Q  Q    Q  Q  Q
F#|----------|-------------|----------|----r--r--|
C#|----------|-------------|----------|----e--e--|
G#|----------|-------------|----------|----s--s--|
C#|-0--0--0--|-0-0-0-0-0-0-|-0--0--0--|-0--t--t--|


      Q  Q  Q    E E E E E E   Q  Q  Q    E E E E E E 15x
F#||-----------|-------------|----------|--------------||
C#||*----------|-------------|----------|-------------*||
G#||*----------|-------------|----------|-------------*||
C#||--0--0--0--|-0-0-0-0-0-0-|-0--0--0--|-0-0-0-0-0-0--||


    Q  Q  Q    E E E E E E   Q  Q  Q    Q  Q  Q
F#|----------|-------------|----------|----r--r--||
C#|----------|-------------|----------|----e--e--||
G#|----------|-------------|----------|----s--s--||
C#|-0--0--0--|-0-0-0-0-0-0-|-0--0--0--|-0--t--t--||

Enjoy!!!

| /  slide up         W = whole note
| \  slide down       H = half note            H. = dotted half note
| h  hammer-on        Q = quarter note         Q. = dotted quarter note
| p  pull-off         E = eighth note          E. = dotted eighth note
| ~  vibrato          S = sixteenth note       S. = dotted sixteenth note
| +  harmonic
| x  Mute note
===============================================================================
Suggest correction
Creating personal tab
Creating personal tab
You can edit any tab online and save it as your Personal.

You can edit, replace or remove any tab part or add personal notes – all changes will be seen only by you.

Personal tabs can be accessed anytime from any device, even offline.
Learn more »
Give kudos to tab author, rate the tab!
1 2 3 4 5
comments
print report bad tab
guest
You may want to rate the tab now too:
select rating
Wanna post a correction for this tab? Suggest correction