Oops, an error
Loading. Please wait.

Forgotten Lost Angels tab

version 3
version 3

Whole song

Interactive

2,708 views 3 this week
1 commentread comment
1 2 3 4 5
2 more votes to show rating
add to favorites
×
Save as Personal and add changes to this tab that will be seen only by you. Learn more ›
×
You can save this tab as Personal to edit and correct it or add notes. All changes will be seen only by you. Learn more »
launch autoscroll
font size
0
reset
how to read this tab
guitar tuner
backing track
0:00
0:00
edit
Autoscroll
slow
fast
+/-
esc
set tempo
stop
This tab is 100% correct. unless theres a typo, or a difference in where THEY play 
the riffs. the notes are right



Tuning: Drop D

e|--------------------------------------------|--------------------------|
B|--------------------------------------------|--------------------------|
G|--------------------------------------------|--------------------------|
D|--------------------------------------------|--------------------------|
A|---13-------13-12-----12\8----8\7----7--7\6-|----13-------13-12----12--|
D|-0----16-12-------15-------11------7----7\6-|--0----16-12-------15-----|
                                                                              

e|-------------------------|-----------------------------------------------------|
B|-------------------------|-----------------------------------------------------|
G|-------------------------|-----------------------------------------------------|
D|-------------------------|-----------------------------------------------------|
A|---------------------7-2-|---13-------13-12----12\8----8\7----7--7-\6----------|
D|--6/7\6--3-6--6/7\6--7-2-|-0----16-12-------15------11------7----7-\6----------|
                                                                              

e|----------------------------------------------|--------------------------------|
B|----------------------------------------------|--------------------------------|
G|----------------------------------------------|--------------------------------|
D|--------------------------------------------6-|--------------------------------|
A|---13-------13-12-----12-8b9r8-5-7-7/8\7-5--4-|---13-------13-12----12\8-------|
D|-0----16-12-------15--------------------------|-0----16-12-------15------11----|
                                                                              

e|---------------|-----------------------------------------------|----------------|
B|---------------|-----------------------------------------------|----------------|
G|---------------|-----------------------------------------------|----------------|
D|---------------|-----------------------------------------------|----------------|
A|--8\7---7--7\6-|---13-------13-12----12--------------------7-2-|----13----------|
D|------7----7\6-|-0----16-12-------15----6/7\6--3-6--6/7\6--7-2-|--0----16-12----|
                                                                              

e|-----------------------------------|-------------------------------------------|
B|-----------------------------------|-------------------------------------------|
G|-----------------------------------|-------------------------------------------|
D|--------------------------------6--|--7-------------7-7-------------7-7--------|
A|-13-12-----12-8b9r8-5-7-7/8\7-5-4--|--5-------------5-5-------------5-5--------|
D|-------15--------------------------|----0-0-0-0-0-0-----0-0-0-0-0-0-----0-0-0--|
                                                                              

e|------------------------------------------------------------------------------|
B|------------------------------------------------------------------------------|
G|------------------------------------------------------------------------------|
D|-------7-7-----6-6----10-10------------10-10-------------9-9------------10----|
A|-------5-5-----4-4-----8--8-------------8--8-------------7-7-------------8----|
D|-0-0-0-----0-0-----0-0------0-0-0-0-0-0------0-0-0-0-0-0-----0-0-0-0-0-0------|
                                                                              

e|------------------------------------------------------------------------------|
B|------------------------------------------------------------------------------|
G|------------------------------------------------------------------------------|
D|-10-----13-13-----7------------8----------------------------------------------|
A|--8-----11-11-----5------------6----13-------13-12----12\8----8\7----7--7\6---|
D|----0-0-------0-0-----------------0----16-12-------15------11------7----7\6---|
                   <----X2                                                      

e|------------------------------------------------------------------------------|
B|------------------------------------------------------------------------------|
G|------------------------------------------------------------------------------|
D|------------------------------------------------------------------------------|
A|----13-------13-12----12---------------------7-2-----13-------13-12----12\8---|
D|--0----16-12-------15-----6/7\6--3-6--6/7\6--7-2---0----15-12-------15--------|
                                                                              

e|---------------------------------------------------------------|
B|---------------------------------------------------------------|
G|---------------------------------------------------------------|
D|---------------------------------------0-----------------------|
A|----8\7----7--7-6-----------------4----0----------3------------|
D|-11------7----7-6---6/7\6-3-6-7-3---7--0----6-5-0-3------------|
                                                                              

-------------------------------------------
-------------------------------------------
-------------------------------------------
-------------------------------13-13-13-13-
-------------------------------11-11-11-11-
-------------------------------------------
                                                      
e|-----------------------------|
B|-----------------------------|
G|-----------------------------|  palm mute only the top string on this riff
D|-----------------------------|
A|-----------2-1---1---2-1---1-|
D|-2b3r2-3-2-----2---2-----2---|


e|------------------------------------------------------------------------------|
B|------------------------------------------------------------------------------|
G|------------------------------------------------------------------------------|
D|------------------------------------------------------------------------------|
A|----2-1----------2-1---1---3-2---2---4-3------------2-1---1---2-1---1---2-1---|
D|--2-----3--2-3-2-----2---2-----3---3------2b3r2-3-2-----2---2-----2---2-------|
                                                                              

e|------------------------------------------------------------------------------|
B|------------------------------------------------------------------------------|
G|------------------------------------------------------------------------------|
D|------------------------------------------------------------------------------|
A|----------2-1---1----6-5-4-3-2-1-----13-------13-12----12\8----8\7---7--7\6---|
D|-3--2-3-2-----2---2--6-5-4-3-2-1---0----16-12-------15------11-----7----7\6---|
                                                                              

e|------------------------------------------------------------------------------|
B|------------------------------------------------------------------------------|
G|------------------------------------------------------------------------------|
D|------------------------------------------------------------------------------|
A|----13-------13-12----12--------------------7-2----13-------13-12----12\8-----|
D|--0----16-12-------15----6h7p6--3-6--6h7p6--7-2--0----16-12-------15------11--|
                                                                              

e|------------------------------------------------------------------------------|
B|------------------------------------------------------------------------------|
G|------------------------------------------------------------------------------|
D|------------------------------------------------------------------------------|
A|-8\7---7--7\6----13-------13-12----12-----------------5-4---------------------|
D|-----7----7\6--0----15-12-------15----7b8r7-5-7-7b8r7-5-4---------------------|
                                                                              
 BREAKDOWN

e|------------------------------------------------------------------------------|
B|------------------------------------------------------------------------------|
G|------------------------------------------------------------------------------|
D|-----------8------7----------6-5---4------------8------7-------------4-3-1----|
A|---10-9-10---10-9------8-6--------------10-9-10---10-9-------8-6--------------|
D|-5-------------------5-----5-----6----5--------------------5-----5-1----------|
                                                                              

e|------------------------------------------------------------------------------|
B|------------------------------------------------------------------------------|
G|------------------------------------------------------------------------------|
D|------------8------7----------6-5---4-------------8------7--------------------|
A|----10-9-10---10-9------8-6---------------10-9-10---10-9----------------------|
D|--5-------------------5-----5-----6-----5-------------------7b8r7-5-7-7b8r7---|
                                                                              

e|------------------------------------------------------------------------------|
B|------------------------------------------------------------------------------|
G|------------------------------------------------------------------------------|
D|----------------8------7----------6-5--4------------8------7------------4-3-1-|
A|---4----10-9-10---10-9------8-6-------------10-9-10---10-9------8-6-----------|
D|-5-4--5-------------------5-----5----6----5-------------------5-----5-1-------|
                                                                              

e|----------------------------------------------------------------------------------|
B|----------------------------------------------------------------------------------|
G|----------------------------------------------------------------------------------|
D|--------------8------7----------6-5----------------8------7-----------------------|
A|------10-9-10---10-9------8-6---------9----10-9-10---10-9--------------------5-4--|
D|----5-------------------5-----5-----6----5-------------------7b8r7-5-7-7b8r7-5-4--|
                                                                              

e|------------------------------------------------------------------------------|
B|------------------------------------------------------------------------------|
G|-----------------2-1---1*------1-----------------1---------------1------------|
D|---------------------3-----------2-3-----------------3---------------3--------|
A|-------0------------------------------0------------5---0-----------4----------|
D|-------0-0-0-0-0---------0-0-0--------0-0-0-0-0--------0-0-0-0-0--------------|
                                                                              

e|------------------------------------------------------------------------------|
B|------------------------------------------------------------------------------|
G|------------2-1---1*----------1----------------1-----------------1------------|
D|----------------3---------------2-3----------------3-----------------3--------|
A|--1---------------------------------1------------5----3------------4----------|
D|--1-1-1-1-1-------------1-1-1-------1-1-1-1-1---------3-3-3-3-3---------------|
                                                                           
e|------------------------------------------------------------------------------|
B|------------------------------------------------------------------------------|
G|------------2-1---1*----------1----------------1-----------------1------------|
D|----------------3---------------2-3----------------3-----------------3--------|
A|--1---------------------------------3------------5----2------------4----------|
D|--1-1-1-1-1-------------1-1-1-------3-3-3-3-3---------2-2-2-2-2---------------|
         end with this second time
 SOLO
gtr 1

e|-------------------------------------------------------------|
b|-------------------------------------------------------------|
g|-9----9b-r~~----------9-9h10p9----9--------------------------|
d|----------------11-12----------12---12-11-12-11-8-11-8-------|
a|-------------------------------------------------------9-10--|
d|-------------------------------------------------------------|


e|----------------------------------------------------------------------------|
b|-------------------------------------------14p11p10h11p10/8h10p8/7----------|
g|-------------------------------------------------------------------8-7------|
d|-----------------------------------------------------------------------10---|
a|--10*b-r--9-10-12-12h13p12-10-12-10-9-10-9----------------------------------|
d|----------------------------------------------------------------------------|


e|-------------------------------------------------------------------------|
b|-------------------------------------------------------------------------|
g|-----------19p18p14------------------------------------------------------|
d|-17-16-16-----------18p15p14------------14-14h15p14----14----------------|
a|-----------------------------17---16-17-------------17----17-16-17-16-13-|
d|-------------------------------------------------------------------------|

e|-----------------------------------------------------------|
b|------------8p7--------------------------------------------|
g|----------------8p7p5h7h8p7p5p7p5--------------------------|
d|----------------------------------7p5h7p5p4h5p4------------|
a|-13-12-12---------------------------------------6p5p3------|
d|------------------------------------------------------6p5--|


tremelo this bar
e|-18---17----15-14-11-10--18---17---18-17-22-21b-21^-22~~~-|
b|----------------------------------------------------------|
g|----------------------------------------------------------|
d|----------------------------------------------------------|
a|----------------------------------------------------------|
d|----------------------------------------------------------|

gtr 2
 
e|------------------------------------------------------------------------------|
B|------------------------------------------------------------------------------|
G|---------------------2---2-2---2---2-2----------------------------------------|
D|---------------------2---2-2---2---2-2----3---3-3---6---6--5--5-5-5-5-5-5-----|
A|---------------------0---0-0---0---0-0----1---1-1---6---6--5--5-5-5-5-5-5-----|
D|---------------------0---0-0---0---0-0----1---1-1---6---6--5--5-5-5-5-5-5-----|

                                                                       etc   
e|------------------------------------------------------------------------------|
B|------------------------------------------------------------------------------|
G|------------------------------------------------------------------------------|
D|-7-------------7-7-------------7-7-------------7-7-----6-6-----3-3------------|
A|-5-------------5-5-------------5-5-------------5-5-----4-4-----1-1------------|
D|---0-0-0-0-0-0-----0-0-0-0-0-0-----0-0-0-0-0-0-----0-0-----0-0-----0-0-0-0-0--|
                                                                              

e|----------------------------------------------------------------------------|
B|----------------------------------------------------------------------------|
G|----------------------------------------------------------------------------|
D|---3-3----------------------------------------------------------------------|
A|---1-1-------------7-7-------------6-6-----2-2------------------------------|
D|-0-----0-0-0-0-0-0-7-7-0-0-0-0-0-0-6-6-0-0-2-2-0-0--------------------------|

the verse riff next X1
then that low riff with all the 2's and 3's X1
then the chorus riff X1 played with only the first two fills in the song

            
            
Suggest correction
Creating personal tab
Creating personal tab
You can edit any tab online and save it as your Personal.

You can edit, replace or remove any tab part or add personal notes – all changes will be seen only by you.

Personal tabs can be accessed anytime from any device, even offline.
Learn more »
Give kudos to tab author, rate the tab!
1 2 3 4 5
comments
print report bad tab
1 comment total.
0 reply
BananaSandwich 10 Feb 28, 2010 03:03 PM

this seems to be accurate. thanks

guest
You may want to rate the tab now too:
select rating
Wanna post a correction for this tab? Suggest correction