Oops, an error
Loading. Please wait.
We have an official Ghost Walking tab made by UG professional guitarists. Check out the tab »
×
13,659 views 15 this week
no commentswrite comment
1 2 3 4 5
x 6
add to favorites
×
Save as Personal and add changes to this tab that will be seen only by you. Learn more ›
×
You can save this tab as Personal to edit and correct it or add notes. All changes will be seen only by you. Learn more »
launch autoscroll
font size
0
reset
how to read this tab
guitar tuner
backing track
0:00
0:00
edit
Autoscroll
slow
fast
+/-
esc
set tempo
stop
Ghost Walking
Lamb of God




Transcribed by Seth Sanders[livetolieanotherday@hotmail.com]
        


Gtr I (C# G# C# F# A# D#) - 'Rhythm Guitar I'
Gtr II (C# G# C# F# A# D#) - 'Rhythm Guitar II'
Gtr III (C# G# C# F# A# D#) - 'Lead Guitar I'
Gtr IV (C# G# C# F# A# D#) - 'Lead Guitar II'
Gtr VI (C# G# C# F# A# D#) - 'Acoustic Guitar'

 Acoustic Intro
  Q=130
  N.C.
 4/4
  Gtr VI
                                         ~~~~~~~           ~~~~~~
  Q  Q  E S S a  Q     Q  S  S   S  S S  S  +S  S  S   S   S +S
|--------------------|-------------------------------------------|
|--------------------|-------------------------------------------|
|--------------------|-------------------------------------------|
|-x--x--x------------|--------------------------x----------------|
|---------x-x--------|-------x---------------------7S==10--------|
|-x--x--x-x-x-5s12\--|-0--0-(0)-13p12p0h12-(12)-0-(0)-(0)-\3-(3)-|


                   ~~~~~~~~
   |---3---|
   S   S   S  S S  E E  E  S S S S S S
|---------------------------------------|
|---------------------------------------|
|---------------------------------------|
|---------------------------------------|
|--x---x---x--x-x-------x----------x-x--|
|-(3)-(3)-(3)-x-x-/6-5-(5)-5-5p3h6p3h5--|


                    ~~~~~~~           ~~~~~~                   ~~~~~
                                               |---3---|
  Q  S  S   S  S S  S  +S  S  S   S   S +S     S   S   S  S S  E E. S S S S S S S
|-------------------------------------------|-------------------------------------|
|-------------------------------------------|-------------------------------------|
|-------------------------------------------|-------------------------------------|
|--------------------------x----------------|-------------------------------------|
|-------x---------------------7S==10--------|--x---x---x--x-x-----------------x-x-|
|-0--0-(0)-13p12p0h12-(12)-0-(0)-(0)-\3-(3)-|-(3)-(3)-(3)-x-x-/6p5--6p5p0h6p5p3h5-|


                    ~~~~~~~           ~~~~~~
  Q  S  S   S  S S  S  +S  S  S   S   S +S
|--------------------------------------------|
|--------------------------------------------|
|--------------------------------------------|
|--------------------------x-----------------|
|-------x---------------------7S==10---------|
|-0--0-(0)-13p12p0h12-(12)-0-(0)-(0)-\3-(3)--|


                   ~~~~~~~~
   |---3---|
   S   S   S  S S  E E  E  S S S S S S
|--------------------------------------|
|--------------------------------------|
|--------------------------------------|
|--------------------------------------|
|--x---x---x--x-x-------x----------x-x-|
|-(3)-(3)-(3)-x-x-/6-5-(5)-5-5p3h6p3h5-|
|
| Gtrs I, II
|  W
|--------------------------------------|
|--------------------------------------|
|--------------------------------------|
|--------------------------------------|
|--------------------------------------|
|--------------------------------------|


  S S S S S S S S S S S S S S S S   S S S S S S S S S S S S      Q
|---------------------------------|------------------------------------||
|---------------------------------|------------------------------------||
|---------------------------------|------------------------------------||
|-------------------------x---x---|-x----------------------------------||
|-------------------------x---x---|-x---------------------x------x-----||
|-6p5p0-6p5p0-6p5p0-6p5p0-6p5p3h5-|-6p5p0-6p5p0-6p5p0-6p5-x------x-----||
|
| W                                 H               E   E    a   Q
|---------------------------------|------------------------------------||
|---------------------------------|------------------------------------||
|---------------------------------|------------------------------------||
|---------------------------------|------------------------------------||
|---------------------------------|---------------------0---(0)s12\----||
|---------------------------------|---------------------0---(0)s12\----||


   Intro
    Gtrs I, II
                        PM      PM                          PM      PM
    S S E +E  S   S   S S S S S S S S   S S E +E  S   S   S S S S S S S S
||------------------------------------|-----------------------------------|
||o-----------------------------------|-----------------------------------|
||------------------------------------|-----------------------------------|
||------------------------------------|-----------------------------------|
||o-----------------------------------|-----------------------------------|
||--0h1p0-(0)-1p==0h==1-3-5h6p5-3-0h1-|-0h1p0-(0)-1p==0h==1-3-5h6p5-3-0h1-|


                      PM      PM
  S S E +E  S   S   S S S S S S S S
|-----------------------------------|
|-----------------------------------|
|-----------------------------------|
|-----------------------------------|
|-----------------------------------|
|-0h1p0-(0)-1p==0h==1-3-5h6p5-3-0h5-|

 1.                                           2.
  PM-----------------------------------|
  S S S S S S S S  S  S  S  S  S  S  S  S     a H.        Q
|------------------------------------------||---------------------------||
|-----------------------------------------o||---------------------------||
|------------------------------------------||---------------------------||
|------------------------------------------||---------------------------||
|-----------------------------------------o||-x-3-------/12\------------||
|-3-3-3-3-3-3-3-3S10-10-10-10-10-10-10-10--||-x-3-------/12\------------||


   Verse I
    PM------------------------------------|   PM|   PM|     PM  PM    ~
    S S S S S S S S T T S S S S S S S   S S S S S S S S S   S S S S S E
||------------------------------------|-----------------------------------|
||o-----------------------------------|-----------------------------------|
||------------------------------------|-----------------------------------|
||------------------------------------|-----------------------------------|
||o-----------------------------------|-----------------------------------|
||--0-0-0-0-0-0-0-0-0-0-0-0-0-0-0-0-0-|-0-0-3-0-0-5-0-0-6---0-5-0-3h5p3---|


  PM------------------------------|                 PM      PM--|
  S S S S S S S S T T S S S S S S S   S S S S S S S S S   S S S S S S S
|-----------------------------------|-------------------------------------||
|-----------------------------------|------------------------------------o||
|-----------------------------------|-------------------------------------||
|-----------------------------------|---------3---------------------------||
|-----------------------------------|-5p1-------5p3---5p==3--------------o||
|-0-0-0-0-0-0-0-0-0-0-0-0-0-0-0-0-0-|-----6p3-------6-------6-5-3-6p3h5---||


   Pre-Chorus
        PM----|     PM----|     PM------|     PM----------------------------|
                                                      |----6----| |----6----|
    S S S S S S S S S S S S S S S S   S S S S S S S S S S S S S S S S S S S S
||----------------------------------|-----------------------------------------|
||o---------------------------------|-----------------------------------------|
||----------------------------------|-----------------------------------------|
||----------------------------------|-----------------------------------------|
||o---------------------------------|-----------------------------------------|
||--3p0-2-2-2-2-3p0-2-2-2-2-3p0-2-2-|-2-2-3p0-2-2-2-2-3-3-3-3-3-3-5-5-5-5-5-5-|


                                   1.
      PM----|     PM----|     PM------|
  S S S S S S S S S S S S S S S S   S S S S S S S S S S S S S S S   S
|---------------------------------|--------------------------------------||
|---------------------------------|-------------------------------------o||
|---------------------------------|--------------------------------------||
|---------------------------------|--------------------------------------||
|---------------------------------|-------------------------------------o||
|-3p0-2-2-2-2-3p0-2-2-2-2-3p0-2-2-|-2-2-3p0-2h3h5p2-5p3p2p0-2h3h5h==6----||


  2.
  PM|     PM----|  ~~~~~~~~~          PM
  S S S S S S S S  E    +S  S S S S   S
|----------------------------------------||
|----------------------------------------||
|----------------------------------------||
|----------------------------------------||
|---------2-2-2-2-----------5------------||
|-2-2-3p0-2-2-2-2-[3]b5-(3)---7p6p5---3--||



 Chorus
  Gtrs I, II
     PM        PM~~      ~~~~~~~~  PM----|   ~     PM
                                   |--3--|
  Q  E S   S   S E S S S E   +E    S S   S E Q     S S S S S S
|--------------------------|-----------------------------------|
|--------------------------|-----------------------------------|
|--------------------------|-----------------------------------|
|--------------------------|-----------------------------------|
|-0----5p==3-----5p0h5h8---|-----------------------------------|
|-0--0---------0---------3-|-(3)---3-3---3-6p5-----5-5p3h6p3h5-|



     PM        PM~~      ~
  Q  E S   S   S E S S S E
|---------------------------|
|---------------------------|
|---------------------------|
|---------------------------|
|-0----5p==3-----5p0h5h8----|
|-0--0---------0---------3--|


   ~~~  PM----|   ~~       PM
        |--3--|
  +E    S S   S E E.   S S S S S S S
|------------------------------------|
|------------------------------------|
|------------------------------------|
|------------------------------------|
|------------------------------------|
|-(3)---3-3---3-6p5----6p5-0-6p5p3h5-|



     PM        PM~~      ~~~~~~~~  PM----|   ~     PM
                                   |--3--|
  Q  E S   S   S E S S S E   +E    S S   S E Q     S S S S S S
|--------------------------|-------------------------------------|
|--------------------------|-------------------------------------|
|--------------------------|-------------------------------------|
|--------------------------|-------------------------------------|
|-0----5p==3-----5p0h5h8---|-------------------------------------|
|-0--0---------0---------3-|-(3)---3-3---3-6p5-----5-5p3h6p3h5---|



                                                       ~~~~~~~~~      PM--|
  S S S S S S S S S S S S   S S S S   S S S S S S S S  E    +S    S S S S S
|-----------------------------------|---------------------------------------||
|-----------------------------------|---------------------------------------||
|-----------------------------------|---------------------------------------||
|-----------------------------------|---------------------------------------||
|-----------------------------------|-----------------------------5p3-------||
|-6p5p0-6p5p0-6p5p0-6p5p0---6p5p3h5-|-6p5p0-6p5p0-6p5-[3]b5-(3)-------6-5-3-|

 Pre-Verse
  Gtrs I, II
                      PM      PM                          PM      PM
  S S E +E  S   S   S S S S S S S S   S S E +E  S   S   S S S S S S S S
|-----------------------------------|------------------------------------|
|-----------------------------------|------------------------------------|
|-----------------------------------|------------------------------------|
|-----------------------------------|------------------------------------|
|-----------------------------------|------------------------------------|
|-0h1p0-(0)-1p==0h==1-3-5h6p5-3-0h1-|-0h1p0-(0)-1p==0h==1-3-5h6p5-3-0h1--|


                      PM      PM
  S S E +E  S   S   S S S S S S S S   H.        Q
|-----------------------------------|----------------------||
|-----------------------------------|----------------------||
|-----------------------------------|----------------------||
|-----------------------------------|----------------------||
|-----------------------------------|-3-------/12\---------||
|-0h1p0-(0)-1p==0h==1-3-5h6p5-3-0h5-|-3-------/12\---------||



   Verse II
    Gtr I
    PM------------------------------------|   PM|   PM|     PM  PM     ~~~
    S S S S S S S S T T S S S S S S S   S S S S S S S S S   S S S S S  E
||------------------------------------|-------------------------------------|
||o-----------------------------------|-------------------------------------|
||------------------------------------|-------------------------------------|
||------------------------------------|-------------------------------------|
||o-----------------------------------|-------------------------------------|
||--0-0-0-0-0-0-0-0-0-0-0-0-0-0-0-0-0-|-0-0-3-0-0-5-0-0-6---0-5-0-3h5p=3----|
|
|
|   Gtr II
|   PM------------------------------------|   PM|   PM|     PM  PM     ~~~
|   S S S S S S S S T T S S S S S S S   S S S S S S S S S   S S S S S  E
||------------------------------------|-------------------------------------|
||o-----------------------------------|-------------------------------------|
||------------------------------------|-------------------------------------|
||------------------------------------|-----------------------5-0-3h5-[3]---|
||o-----------------------------------|-------------------------------------|
||--0-0-0-0-0-0-0-0-0-0-0-0-0-0-0-0-0-|-0-0-3-0-0-5-0-0-6---0---------------|


  PM------------------------------|                 PM      PM--|
  S S S S S S S S T T S S S S S S S   S S S S S S S S S   S S S S S S S
|-----------------------------------|-------------------------------------||
|-----------------------------------|------------------------------------o||
|-----------------------------------|-------------------------------------||
|-----------------------------------|---------3---------------------------||
|-----------------------------------|-5p1-------5p3---5p==3--------------o||
|-0-0-0-0-0-0-0-0-0-0-0-0-0-0-0-0-0-|-----6p3-------6-------6-5-3-6p3h5---||
|
| PM------------------------------|                 PM      PM--|
| S S S S S S S S T T S S S S S S S   S S S S S S S S S   S S S S S S S
|-----------------------------------|-------------------------------------||
|-----------------------------------|------------------------------------o||
|-----------------------------------|-------------------------------------||
|-----------------------------------|-3-------6p3-----3-------------------||
|-----------------------------------|---5p3-------6-3-----6--------------o||
|-0-0-0-0-0-0-0-0-0-0-0-0-0-0-0-0-0-|-------6---------------6-5-3-6p3h5---||


   Break
                                        1.,2.,3.
    Gtrs I, II
    PM--------------------|             PM|   PM|   PM|     PM  PM    ~
    S S S S S S S S T T S E   Q         S S S S S S S S S   S S S S S E    4x
||------------------------------------|------------------------------------||
||o-----------------------------------|-----------------------------------o||
||------------------------------------|------------------------------------||
||------------------------------------|------------------------------------||
||o-----------------------x-----------|-----------------------------------o||
||--0-0-0-0-0-0-0-0-0-0-0-x-----------|-x-x-3-0-0-5-0-0-6---0-5-0-3h5p3----||
|
|   PM-----------------------------------------------------------------------


  4.
                PM      PM--|
  S S S S S S S S S   S S S S S S S
|--------------------------------------|
|--------------------------------------|
|--------------------------------------|
|---------3----------------------------|
|-5p1-------5p3---5p==3----------------|
|-----6p3-------6-------6-5-3-6p3h5----|
|
|---------------------------------|



   Pre-Chorus
        PM----|     PM----|     PM------|     PM----------------------------|
                                                      |----6----| |----6----|
    S S S S S S S S S S S S S S S S   S S S S S S S S S S S S S S S S S S S S
||----------------------------------|-----------------------------------------|
||o---------------------------------|-----------------------------------------|
||----------------------------------|-----------------------------------------|
||----------------------------------|-----------------------------------------|
||o---------------------------------|-----------------------------------------|
||--3p0-2-2-2-2-3p0-2-2-2-2-3p0-2-2-|-2-2-3p0-2-2-2-2-3-3-3-3-3-3-5-5-5-5-5-5-|


                                   1.
      PM----|     PM----|     PM------|
  S S S S S S S S S S S S S S S S   S S S S S S S S S S S S S S S   S
|---------------------------------|--------------------------------------||
|---------------------------------|-------------------------------------o||
|---------------------------------|--------------------------------------||
|---------------------------------|--------------------------------------||
|---------------------------------|-------------------------------------o||
|-3p0-2-2-2-2-3p0-2-2-2-2-3p0-2-2-|-2-2-3p0-2h3h5p2-5p3p2p0-2h3h5h==6----||



  2.
  PM|     PM----|  ~~~~~~~~~          PM
  S S S S S S S S  E    +S  S S S S   S
|----------------------------------------||
|----------------------------------------||
|----------------------------------------||
|----------------------------------------||
|---------2-2-2-2-----------5------------||
|-2-2-3p0-2-2-2-2-[3]b5-(3)---7p6p5---3--||



 Chorus
  Gtrs I, II
     PM        PM~~      ~~~~~~~~  PM----|   ~     PM
                                   |--3--|
  Q  E S   S   S E S S S E   +E    S S   S E Q     S S S S S S
|--------------------------|-----------------------------------|
|--------------------------|-----------------------------------|
|--------------------------|-----------------------------------|
|--------------------------|-----------------------------------|
|-0----5p==3-----5p0h5h8---|-----------------------------------|
|-0--0---------0---------3-|-(3)---3-3---3-6p5-----5-5p3h6p3h5-|

     PM        PM~~      ~
  Q  E S   S   S E S S S E
|---------------------------|
|---------------------------|
|---------------------------|
|---------------------------|
|-0----5p==3-----5p0h5h8----|
|-0--0---------0---------3--|


   ~~~  PM----|   ~~       PM
        |--3--|
  +E    S S   S E E.   S S S S S S S
|------------------------------------|
|------------------------------------|
|------------------------------------|
|------------------------------------|
|------------------------------------|
|-(3)---3-3---3-6p5----6p5-0-6p5p3h5-|


     PM        PM~~      ~~~~~~~~  PM----|   ~     PM
                                   |--3--|
  Q  E S   S   S E S S S E   +E    S S   S E Q     S S S S S S
|--------------------------|-------------------------------------|
|--------------------------|-------------------------------------|
|--------------------------|-------------------------------------|
|--------------------------|-------------------------------------|
|-0----5p==3-----5p0h5h8---|-------------------------------------|
|-0--0---------0---------3-|-(3)---3-3---3-6p5-----5-5p3h6p3h5---|


                                                       ~~~~~~~~~      PM--|
  S S S S S S S S S S S S   S S S S   S S S S S S S S  E    +S    S S S S S
|-----------------------------------|---------------------------------------||
|-----------------------------------|---------------------------------------||
|-----------------------------------|---------------------------------------||
|-----------------------------------|---------------------------------------||
|-----------------------------------|-----------------------------5p3-------||
|-6p5p0-6p5p0-6p5p0-6p5p0---6p5p3h5-|-6p5p0-6p5p0-6p5-[3]b5-(3)-------6-5-3-|


   Re-Intro
    Gtrs I, II
                        PM      PM                          PM      PM
    S S E +E  S   S   S S S S S S S S   S S E +E  S   S   S S S S S S S S
||------------------------------------|-----------------------------------|
||o-----------------------------------|-----------------------------------|
||------------------------------------|-----------------------------------|
||------------------------------------|-----------------------------------|
||o-----------------------------------|-----------------------------------|
||--0h1p0-(0)-1p==0h==1-3-5h6p5-3-0h1-|-0h1p0-(0)-1p==0h==1-3-5h6p5-3-0h1-|



  Gtr I
                      PM      PM
  S S E +E  S   S   S S S S S S S S
|-----------------------------------|
|-----------------------------------|
|-----------------------------------|
|-----------------------------------|
|-----------------------------------|
|-0h1p0-(0)-1p==0h==1-3-5h6p5-3-0h5-|
|
| Gtr II
|                     PM      PM
| S S E +E  S   S   S S S S S S S S
|-----------------------------------|
|-----------------------------------|
|-----------------------------------|
|-----------------------------------|
|-----------------------------------|
|-0h1p0-(0)-1p==0h==1-3-5h6p5-3-0h5-|


  PM-----------------------------------|
  S S S S S S S S  S  S  S  S  S  S  S  S
|-------------------------------------------||
|------------------------------------------o||
|-------------------------------------------||
|-------------------------------------------||
|------------------------------------------o||
|-3-3-3-3-3-3-3-3S10-10-10-10-10-10-10-10---||
|
| PM-----------------------------------|
| S S S S S S S S  S  S  S  S  S  S  S  S
|-------------------------------------------||
|------------------------------------------o||
|-------------------------------------------||
|-3-3-3-3-3-3-3-3S10-10-10-10-10-10-10-10---||
|------------------------------------------o||
|-------------------------------------------||


 Bridge
  Gtr I
      PM  PM|   PM|   PM|         PM|         PM  PM|   PM|   PM|   PM|
  S S S S S S S S S S S S      S  S S S   S S S S S S S S S S S S S S S S
|---------------------------------------|----------------------------------|
|---------------------------------------|----------------------------------|
|---------------------------------------|----------------------------------|
|---------------------------------------|----------------------------------|
|-3h5---5-----5-----5----------5------5-|-3h5---5-----5-----5-----5-----5--|
|-----0---0-0---0-0---0-0---------0-0---|-----0---0-0---0-0---0-0---0-0----|
|
| Gtr II
|                                             PM  PM|   PM|   PM|   PM|
| q       H               a a  Q          S S S S S S S S S S S S S S S S
|---------------------------------------|----------------------------------|
|---------------------------------------|----------------------------------|
|---------------------------------------|----------------------------------|
|---------------------------------------|----------------------------------|
|-0-----------------------x-------------|-7h8---8-----8-----8-----8-----8--|
|-0-----------------------x-7s12\-------|-----0---0-0---0-0---0-0---0-0----|


  Gtrs I, II
      PM----|   PM|   PM|   PM|         PM----|   PM|   PM|   PM|
  S S S S S S S S S S S S S S S S   S S S S S S S S S S S S S S S S
|---------------------------------|----------------------------------|
|---------------------------------|----------------------------------|
|---------------------------------|----------------------------------|
|---------------------------------|----------------------------------|
|-1h3-3-3-3---3-----3-----3-----3-|-0h1-1-1-1---1-----1-----1-----1--|
|-----------0---0-0---0-0---0-0---|-----------0---0-0---0-0---0-0----|


  PM--------|         PM|     PM|       PM  PM|   PM|   PM|   PM|
  S S S S S S S S S S S S S S S S   S S S S S S S S S S S S S S S S
|---------------------------------|----------------------------------|
|---------------------------------|----------------------------------|
|---------------------------------|----------------------------------|
|---------------------------------|----------------------------------|
|---------------------------------|-3h5---5-----5-----5-----5-----5--|
|-5-7-7-7-7-0-7p0-3h6-6-0-2h5-5-0-|-----0---0-0---0-0---0-0---0-0----|


      PM----|   PM|   PM|   PM|         PM----|   PM|   PM|   PM|
  S S S S S S S S S S S S S S S S   S S S S S S S S S S S S S S S S
|---------------------------------|---------------------------------|
|---------------------------------|---------------------------------|
|---------------------------------|---------------------------------|
|---------------------------------|---------------------------------|
|-1h3-3-3-3---3-----3-----3-----3-|-0h1-1-1-1---1-----1-----1-----1-|
|-----------0---0-0---0-0---0-0---|-----------0---0-0---0-0---0-0---|


  PM--------|         PM|     PM|
  S S S S S S S S S S S S S S S S
|------------------------------------||
|------------------------------------||
|------------------------------------||
|------------------------------------||
|------------------------------------||
|-5-7-7-7-7-0-7p0-3h6-6-0-2h5-6-7----||


 Guitar Solo
  Gtrs I, II
              PM         PM---|          PM---|          PM---|        PM|
   S    S     S    S     S    S     S    S     S    S    S    S     S  S  S  S
|------------------------------------------------------------------------------|
|------------------------------------------------------------------------------|
|------------------------------------------------------------------------------|
|------------------------------------------------------------------------------|
|--3h===5----------5----------------5---------------5---------------5--------5-|
|-------------0----------0----0----------0-----0---------0----0--------0--0----|
|
| Gtr III
|  T             PM--------|
|  |--------6---------|  |--------6---------|  |--------5--------|
|  S  S    S  S  S    S  S  S    S  S  S    S  S  S    S    S    S  S  S  S  S
|-22p17p==13--------------------13S17h18h==20p18p17--------17h==18p17----------|
|------------15------------15-------------------------18--------------20p18p17-|
|---------------14------14-----------------------------------------------------|
|--------------------15--------------------------------------------------------|
|------------------------------------------------------------------------------|
|------------------------------------------------------------------------------|


         PM-------|      PM|       PM|      PM|
   S  S  S  S   S  S  S  S   S  S  S  S  S  S  S  S
|---------------------------------------------------|
|---------------------------------------------------|
|---------------------------------------------------|
|---------------------------------------------------|
|--1h=3--3--3---3-----3---------3--------3--------3-|
|------------------0-----0---0-----0--0-----0--0----|
|
|           PM           PM     PM|
|  S  S  S  S   S  S  S  S   S  S  S  S  S  S  S  S
|---------------------------------------------------|
|-20p18-17----\17p15-14----\14----------------------|
|----------19-----------15-----15-14-12s15p14p12----|
|------------------------------------------------15-|
|---------------------------------------------------|
|---------------------------------------------------|


          PM------|      PM|      PM---|        PM|
    S  S  S  S  S  S  S  S  S  S  S    S     S  S  S  S
|-------------------------------------------------------|
|-------------------------------------------------------|
|-------------------------------------------------------|
|-------------------------------------------------------|
|---0h=1--1--1--1-----1--------1-------------1--------1-|
|------------------0-----0--0-----0----0--------0--0----|
|
|            PM---|
|                                 |---3---|
|   S  S  S  S  S  S  S  S  S  S  S  S    S  S  S  S  S
|----------------------------------------------------15-|
|----------------------------------------14h15h17-18----|
|--------------------------------15h16------------------|
|-/17p15p14-------------15-17h19------------------------|
|-----------17-16-17-19---------------------------------|
|-------------------------------------------------------|


   PM----------------------|                  PM-|     PM|
   S    S     S    S     S  S  S  S  S    S   S  S S S S S
|-----------------------------------------------------------|
|-----------------------------------------------------------|
|-----------------------------------------------------------|
|-----------------------------------------------------------|
|-----------------------------------------------------------|
|--5----7-----7----7-----7--0--7p=0--3h===6---6--0-2h5-5-0--|
|
|                                 PM          ~~~~
|  |--------6---------|
|  S  S    S  S  S    S  S  S  S  S  E       +Q.
|-17p15p==13------------12h13-------------------------------|
|------------17p15p==13-------15-14S20b22---(20)------------|
|-----------------------------------------------------------|
|-----------------------------------------------------------|
|-----------------------------------------------------------|
|-----------------------------------------------------------|


          PM    PM-|      PM|   PM|     PM----|
   S    S S S   S  S   S  S S S S S   S S     S     S
|-----------------------------------------------------|
|-----------------------------------------------------|
|-----------------------------------------------------|
|-----------------------------------------------------|
|--3h===5---5----------5------5-------5-------------5-|
|---------0-----0--0------0-0---0-0-----0-----0-------|
|
|                      ~~~~
|                                     |-----3-----|
|  Q           +E      Q.             e     e     e
|--------------------[22]-----------------------------|
|-----------------------------------/15---/17---/18---|
|-18b19-------(18)---(18)-----------------------------|
|-----------------------------------------------------|
|-----------------------------------------------------|
|-----------------------------------------------------|


              PM--------------|          PM---|     PM|       PM|
   S    S     S    S     S    S     S    S     S  S S   S   S S S S
|---------------------------------------------------------------------|
|---------------------------------------------------------------------|
|---------------------------------------------------------------------|
|---------------------------------------------------------------------|
|--1h===3-----3----3-----3----------3-------------3---------3-----3---|
|-----------------------------0----------0-----0----0---0-----0-0-----|
|
|                                              ~~~          ~~
|  |--------6---------|  |--------6---------|
|  S  S    S  S  S    S  S  S    S  S  S    S  E.      +S   Q
|---------------------------------------------------------------------|
|-17h18p==17p15h17p==15p13h15p==13p12---------------------------------|
|-------------------------------------15p==14p12------(12)s14---------|
|---------------------------------------------------------------------|
|---------------------------------------------------------------------|
|---------------------------------------------------------------------|


          PM------------|      PM|      PM|         PM|
   S  S   S    S      S  S  S  S  S  S  S  S     S  S  S     S
|--------------------------------------------------------------|
|--------------------------------------------------------------|
|--------------------------------------------------------------|
|--------------------------------------------------------------|
|--0h=1---1----1------1-----1--------1-----------1-----------1-|
|------------------------0-----0--0-----0--0--------0--0-------|
|
|                        PM    PM
|  S  S   S   +S      S  S  S  S  S  S  S  S     S  S  S     S
|--------------------------------------------------------------|
|-------(12)-(12)b13-------------------15p13b15----15p13b15----|
|-12p10--12--(12)b13-12-10-12-10-12s13----------14----------14s|
|--------------------------------------------------------------|
|--------------------------------------------------------------|
|--------------------------------------------------------------|


   PM----------------------|             PM|       PM--|
   S   S     S   S       S  S  S  S  S S S S S S   S   S
|---------------------------------------------------------||
|---------------------------------------------------------||
|---------------------------------------------------------||
|---------------------------------------------------------||
|---------------------------------------------------------||
|--5---7-----7---7-------7--0--7p=0--3h6-6-0-2h5---5---0--||
|
|                           PM---|   ~~~
|  |--------6--------|
|  S S    S  S S     S   S  S  S  S  Q.           +E
|---------------------------------------------------------||
|---------------------------------------------------------||
|-10p9------10p9--------------------10-----------(10)\----||
|--------12--------[12]s11----------12-----------(12)\----||
|--------------------------12-10-12-----------------------||
|---------------------------------------------------------||


 Guitar Solo II
   PM------------------------------------------------------|
   S    S     S    S     S    S     S    S     T T    S     E        Q
|-------------------------------------------------------------------------------------|
|-------------------------------------------------------------------------------------|
|-------------------------------------------------------------------------------------|
|-------------------------------------------------------------------------------------|
|-----------------------------------------------------------x-------------------------|
|--0----0-----0----0-----0----0-----0----0-----0-0----0-----x-------------------------|
|
|  PM----------------|                         PM----------------|
|  |--------6---------|  |--------6---------|  |--------6---------|  |------6-------|
|  S  S    S  S  S    S  S  S    S  S  S    S  S    S    S  S  S  S  S  S  S  S  S  S
|-------------------------------------------------------------------------------------|
|-------------------------------------------------------------------------------------|
|-------------------------------------------------------------------14s13-------------|
|-----------------------15p14-----------------14---15---17-14-15-17-------17p15p14h15-|
|-14-15---17-14-15---17---------17p15p14h==15-----------------------------------------|
|-------------------------------------------------------------------------------------|


   PM---|          PM---|           PM---|          PM         PM               ~~~
   S    S     S    S     S    S     S    S     S    S     S    S     S    S     E
|---------------------------------------------------------------------------------------|
|---------------------------------------------------------------------------------------|
|---------------------------------------------------------------------------------------|
|---------------------------------------------------------------------------------------|
|---------------------------------------------------------------------------------------|
|--x----x-----3----0-----0----5-----0----0-----6----0-----5----0-----3h===5p====3-------|
|
|  PM----------------|
|  |--------6---------|  |--------6---------|  |--------6---------|  |-------6--------|
|  S  S    S  S  S    S  S  S    S  S  S    S  S  S    S  S  S    S  S  S    S  S  S  S
|---------------------------------------------------------------------------------------|
|---------------------------------------------18p17p==15------------21p18p==17----------|
|-----------------------17p16p==15-----------------------17p15p==14------------19p17p15-|
|-15-17---18-15-17---18------------18p17p==15-------------------------------------------|
|---------------------------------------------------------------------------------------|
|---------------------------------------------------------------------------------------|


   PM---------------------------------|
   S     S S S   S  S S S   T  T S      E       Q
|----------------------------------------------------------|
|----------------------------------------------------------|
|----------------------------------------------------------|
|----------------------------------------------------------|
|---------------------------------------x------------------|
|--0-----0-0-0---0--0-0-0---0--0-0------x------------------|
|
|                ~~~~~~~~~~~~~~~
|  Q            +Q         +E       a   S    S  S  S  S  S
|-16b18========(16)-------(16)S====12r=13s==17s13----13----|
|-------------------------------------------------17----17p|
|----------------------------------------------------------|
|----------------------------------------------------------|
|----------------------------------------------------------|
|----------------------------------------------------------|
|
| Gtr IV
|                ~~~~
|  Q            +Q         +E          +E       Q
|-20b22========(20)-------(20)r=======(20)\----------------|
|----------------------------------------------------------|
|----------------------------------------------------------|
|----------------------------------------------------------|
|----------------------------------------------------------|
|----------------------------------------------------------|


   PM|      PM|      PM|        PM  PM    ~
   S  S  S  S  S  S  S  S  S    S S S S S E
|-------------------------------------------|
|-------------------------------------------|
|-------------------------------------------|
|-------------------------------------------|
|-------------------------------------------|
|--x--x--3--0--0--5--0--0--6----0-5-0-3h5p3-|
|
|                       ~~~~~~~~
|  S  S  S  S  S  S  S  S  H
|-------------------------------------------|
|-13p12h13p12----12h13h14h15b16-------------|
|-------------14----------------------------|
|-------------------------------------------|
|-------------------------------------------|
|-------------------------------------------|
|
|  W
|-------------------------------------------|
|-------------------------------------------|
|-------------------------------------------|
|-------------------------------------------|
|-------------------------------------------|
|-------------------------------------------|


   PM------------------------|
   S S S  S S S  S S  T T  S  E    Q
|---------------------------------------------------|
|---------------------------------------------------|
|---------------------------------------------------|
|---------------------------------------------------|
|-----------------------------x---------------------|
|--0-0-0--0-0-0--0-0--0-0--0--x---------------------|
|
|      PM
|                                           |--3--|
|  S S S  S S S  S S  S    S  S S  S   S    S  S  S
|---------------------------------------------------|
|---------------------------------------------------|
|-10p7---10p7---10p7h10s==12p10-7h10p==7------------|
|-10p7-0-10p7-0-10p7h10s==12p10-0-(0)-(0)-/10h12h13s|
|---------------------------------------------------|
|---------------------------------------------------|


   PM|    PM---|       PM---|       PM  PM    ~
   S S  S S    S    S  S    S     S S S S S S E
|-----------------------------------------------|
|-----------------------------------------------|
|-----------------------------------------------|
|-----------------------------------------------|
|-----------------------------------------------|
|--x-x--3-0----0----5--0----0-----6-0-5-0-3h5p3-|
|
|       PM          ~~            ~~
|         |---3---|    |---3---|
|  S S  S S  S    S S  S  S    S  H
|-----------------------------------------------|
|-----------------------------------------------|
|-------------------9h10h11h==12S13-------------|
|-10p9----9h10h==12-----------------------------|
|------12---------------------------------------|
|-----------------------------------------------|


   PM---------------------------------|
   S    S S S   S  S S S  T T    S     E        Q
|-------------------------------------------------------------------|
|-------------------------------------------------------------------|
|-------------------------------------------------------------------|
|-------------------------------------------------------------------|
|--------------------------------------x----------------------------|
|--0----0-0-0---0--0-0-0--0-0----0-----x----------------------------|
|
|               ~~~~
|                         |--------6---------|  |--------7--------|
|  Q           +Q         S    S    S  S  S  S  S  S  S  S  S  S  S
|-10----------(10)--------------------------------------------------|
|-13b15-------(13)-------15--------------15----------15-------------|
|-----------------------------14p==13p12----14p13p12----15p14p13p12-|
|-------------------------------------------------------------------|
|-------------------------------------------------------------------|
|-------------------------------------------------------------------|
|
| Gtr IV
|  W
|-------------------------------------------------------------------|
|-------------------------------------------------------------------|
|-------------------------------------------------------------------|
|-------------------------------------------------------------------|
|-------------------------------------------------------------------|
|-------------------------------------------------------------------|


                                                             PM             PM---|
   S         S     S         S     S    S            S       S     S    S   S  S S S   S   S
|-----------------------------------------------------------------------------------------------||
|-----------------------------------------------------------------------------------------------||
|-----------------------------------------------------------------------------------------------||
|----------------------------------3------------------------------------------------------------||
|--5p========1--------------------------5p===========3-------------5p===3-----------------------||
|------------------6p========3-------------------------------6--------------6--5-3-6p==3h==5----||
|
|                                                                           ~~~~
|  |-------------6--------------|  |-------------7--------------|
|  S       S    S  S  S         S  S  S    S       S    S  S    S  E       +Q         +E
|-----------------------------------------------------------------17b18---(17)-------(17)\------||
|-15b15.5------------15b15.5--------------15b15.5-----------------------------------------------||
|---------14p==13p12-----------14p13p12-----------15p==14p13p==12-------------------------------||
|-----------------------------------------------------------------------------------------------||
|-----------------------------------------------------------------------------------------------||
|-----------------------------------------------------------------------------------------------||
|
|                                                                           ~~~~
|  H                                                               E       +Q         +E
|-----------------------------------------------------------------20b22---(20)-------(20)\------||
|-----------------------------------------------------------------------------------------------||
|-----------------------------------------------------------------------------------------------||
|-----------------------------------------------------------------------------------------------||
|-----------------------------------------------------------------------------------------------||
|-----------------------------------------------------------------------------------------------||


   Pre-Chorus
    Gtrs I, II
        PM----|     PM----|     PM------|     PM----------------------------|
                                                      |----6----| |----6----|
    S S S S S S S S S S S S S S S S   S S S S S S S S S S S S S S S S S S S S
||----------------------------------|-----------------------------------------|
||o---------------------------------|-----------------------------------------|
||----------------------------------|-----------------------------------------|
||----------------------------------|-----------------------------------------|
||o---------------------------------|-----------------------------------------|
||--3p0-2-2-2-2-3p0-2-2-2-2-3p0-2-2-|-2-2-3p0-2-2-2-2-3-3-3-3-3-3-5-5-5-5-5-5-|


                                   1.
      PM----|     PM----|     PM------|
  S S S S S S S S S S S S S S S S   S S S S S S S S S S S S S S S   S
|---------------------------------|--------------------------------------||
|---------------------------------|-------------------------------------o||
|---------------------------------|--------------------------------------||
|---------------------------------|--------------------------------------||
|---------------------------------|-------------------------------------o||
|-3p0-2-2-2-2-3p0-2-2-2-2-3p0-2-2-|-2-2-3p0-2h3h5p2-5p3p2p0-2h3h5h==6----||



  2.
  PM|     PM----|  ~~~~~~~~~          PM
  S S S S S S S S  E    +S  S S S S   S
|----------------------------------------||
|----------------------------------------||
|----------------------------------------||
|----------------------------------------||
|---------2-2-2-2-----------5------------||
|-2-2-3p0-2-2-2-2-[3]b5-(3)---7p6p5---3--||



 Chorus
  Gtrs I, II
     PM        PM~~      ~~~~~~~~  PM----|   ~     PM
                                   |--3--|
  Q  E S   S   S E S S S E   +E    S S   S E Q     S S S S S S
|--------------------------|-----------------------------------|
|--------------------------|-----------------------------------|
|--------------------------|-----------------------------------|
|--------------------------|-----------------------------------|
|-0----5p==3-----5p0h5h8---|-----------------------------------|
|-0--0---------0---------3-|-(3)---3-3---3-6p5-----5-5p3h6p3h5-|


     PM        PM~~      ~
  Q  E S   S   S E S S S E
|---------------------------|
|---------------------------|
|---------------------------|
|---------------------------|
|-0----5p==3-----5p0h5h8----|
|-0--0---------0---------3--|



   ~~~  PM----|   ~~       PM
        |--3--|
  +E    S S   S E E.   S S S S S S S
|------------------------------------|
|------------------------------------|
|------------------------------------|
|------------------------------------|
|------------------------------------|
|-(3)---3-3---3-6p5----6p5-0-6p5p3h5-|


     PM        PM~~      ~~~~~~~~  PM----|   ~     PM
                                   |--3--|
  Q  E S   S   S E S S S E   +E    S S   S E Q     S S S S S S
|--------------------------|-------------------------------------|
|--------------------------|-------------------------------------|
|--------------------------|-------------------------------------|
|--------------------------|-------------------------------------|
|-0----5p==3-----5p0h5h8---|-------------------------------------|
|-0--0---------0---------3-|-(3)---3-3---3-6p5-----5-5p3h6p3h5---|



                                                       ~~~~~~~~~      PM--|
  S S S S S S S S S S S S   S S S S   S S S S S S S S  E    +S    S S S S S
|-----------------------------------|---------------------------------------||
|-----------------------------------|---------------------------------------||
|-----------------------------------|---------------------------------------||
|-----------------------------------|---------------------------------------||
|-----------------------------------|-----------------------------5p3-------||
|-6p5p0-6p5p0-6p5p0-6p5p0---6p5p3h5-|-6p5p0-6p5p0-6p5-[3]b5-(3)-------6-5-3-|

   Outro
    Gtrs I, II
                        PM      PM                          PM      PM
    S S E +E  S   S   S S S S S S S S   S S E +E  S   S   S S S S S S S S
||------------------------------------|-----------------------------------|
||o-----------------------------------|-----------------------------------|
||------------------------------------|-----------------------------------|
||------------------------------------|-----------------------------------|
||o-----------------------------------|-----------------------------------|
||--0h1p0-(0)-1p==0h==1-3-5h6p5-3-0h1-|-0h1p0-(0)-1p==0h==1-3-5h6p5-3-0h1-|



  Gtr I
                      PM      PM
  S S E +E  S   S   S S S S S S S S
|-----------------------------------|
|-----------------------------------|
|-----------------------------------|
|-----------------------------------|
|-----------------------------------|
|-0h1p0-(0)-1p==0h==1-3-5h6p5-3-0h5-|
|
| Gtr II
|                     PM      PM
| S S E +E  S   S   S S S S S S S S
|-----------------------------------|
|-----------------------------------|
|-----------------------------------|
|-----------------------------------|
|-----------------------------------|
|-0h1p0-(0)-1p==0h==1-3-5h6p5-3-0h5-|


  PM-----------------------------------|
  S S S S S S S S  S  S  S  S  S  S  S  S   4x
|-------------------------------------------||
|------------------------------------------o||
|-------------------------------------------||
|-------------------------------------------||
|------------------------------------------o||
|-3-3-3-3-3-3-3-3S10-10-10-10-10-10-10-10---||
|
| PM-----------------------------------|
| S S S S S S S S  S  S  S  S  S  S  S  S   4x
|-------------------------------------------||
|------------------------------------------o||
|-------------------------------------------||
|-3-3-3-3-3-3-3-3S10-10-10-10-10-10-10-10---||
|------------------------------------------o||
|-------------------------------------------||



Duration Legend
---------------
W - whole; H - half; Q - quarter; E - 8th; S - 16th; T - 32nd; X - 64th; a - acciaccatura
+ - note tied to previous; . - note dotted; .. - note double dotted
Uncapitalized letters represent notes that are staccato (1/2 duration)
Irregular groupings are notated above the duration line
Duration letters will always appear directly above the note/fret number it represents the
duration for.  Duration letters with no fret number below them represent rests.  Multi-
bar rests are notated in the form Wxn, where n is the number of bars to rest for.  Low
melody durations appear below the staff

Tablature Legend
----------------
 h   - hammer-on
 p   - pull-off
 b   - bend
 pb  - pre-bend
 r   - bend release (if no number after the r, then release immediately)
 /\  - slide into or out of (from/to "nowhere")
 s   - legato slide
 S   - shift slide
 - natural harmonic
[n]  - artificial harmonic
n(n) - tapped harmonic
 ~   - vibrato
 tr  - trill
 T   - tap
 TP  - trem. picking
 PM  - palm muting
\n/  - tremolo bar dip; n = amount to dip
 \n  - tremolo bar down
 n/  - tremolo bar up
/n\  - tremolo bar inverted dip
 =   - hold bend; also acts as connecting device for hammers/pulls
 <> - volume swell (louder/softer)
 x   - on rhythm slash represents muted slash
 o   - on rhythm slash represents single note slash

Misc Legend
-----------
 |  - bar
||  - double bar
||o - repeat start
o|| - repeat end
*|  - double bar (ending)
 :  - bar (freetime)
 $  - Segno
 &  - Coda
Tempo markers -  = BPM(8/16=s8/s16), where s8 = swing 8ths, s16 = swing 16ths


            
            
Suggest correction
Creating personal tab
Creating personal tab
You can edit any tab online and save it as your Personal.

You can edit, replace or remove any tab part or add personal notes – all changes will be seen only by you.

Personal tabs can be accessed anytime from any device, even offline.
Learn more »
comments
print report bad tab
guest
You may want to rate the tab now too:
select rating
Wanna post a correction for this tab? Suggest correction