Oops, an error
Loading. Please wait.
We have an official Hourglass tab made by UG professional guitarists. Check out the tab »
×
12,023 views 1 this week
11 commentsread comments
1 2 3 4 5
x 11
add to favorites
×
Save as Personal and add changes to this tab that will be seen only by you. Learn more ›
×
You can save this tab as Personal to edit and correct it or add notes. All changes will be seen only by you. Learn more »
launch autoscroll
font size
0
reset
guitar tuner
backing track
0:00
0:00
edit
Autoscroll
slow
fast
+/-
esc
set tempo
stop
Author
Difficulty
Lamb of God - Hourglass

Drop D Tuning

Riff 1 x2
   ss e ss e e e ss e   e e  ss e e e e e   ss e ss e e e ss e   e e  ss e e  e  e  e
|---------------------|-------------------|--------------------|-----------10-9-/14-13-|
|4--------------------|-------------------|--------------------|-----------------------|
|4-----------7h8------|-8h10--------------|-----------7h8------|-8/12------------------|
|--00-0-00-0-----00-0-|------00-0-3-7-6-2-|-00-0-00-0-----00-0-|------00-0-------------|

  ss e ss e e e ss e   e e  ss e e e e e   ss e ss e e  e  ss e   e  e  ss e e e  s  s  e
|--------------------|-------------------|----------------------|--------------------------|
|--------------------|-------------------|----------------------|--------------------------|
|-----------7h8------|-8h10--------------|----------------------|--------------------------|
|-00-0-00-0-----00-0-|------00-0-3-7-6-2-|-00-0-00-0-13-12-00-0-|-12-11-00-0-0-12-16h17p16-|

Riff 2 x1
  e e e e  e  e e e    s  s  e  e e e e  e  e    e e e e  e  e e e    e  e e e e e e e
|--------------------|-------------------------|--------------------|------------------|
|--------------------|-------------------------|--------------------|------------------|
|--------------------|----------------13-12-11-|--------------------|------------------|
|-0-0-0-13-12-0-0-12-|-16h17p16-0-0-0----------|-0-0-0-13-12-0-0-12-|-11-0-0-0-0-0-0-0-|

  e e e e  e  e e e   s s e e e e e e e   e e e e  e  e e e    e  e e e e e e e
|-------------------|-------------------|--------------------|------------------|
|-------------------|-------------------|--------------------|------------------|
|-------------------|-------------------|--------------------|------------------|
|-0-0-0-13-12-0-0-1-|-3h4p3-0-0-0-8-5-4-|-0-0-0-13-12-0-0-12-|-11-0-0-0-0-0-0-0-|

  e e e e  e  e e e    s  s  e  e e e e  e  e    e e e e  e  e e e    e  e e e e e e e
|--------------------|-------------------------|--------------------|------------------|
|--------------------|-------------------------|--------------------|------------------|
|--------------------|----------------13-12-11-|--------------------|------------------|
|-0-0-0-13-12-0-0-12-|-16h17p16-0-0-0----------|-0-0-0-13-12-0-0-12-|-11-0-0-0-0-0-0-0-|

  e e e e  e  e e e   s s e e e e e e e    e e e e
|-------------------|-------------------|----------|
|-------------------|-------------------|2---------|
|-------------------|-------------------|4---------|
|-0-0-0-13-12-0-0-1-|-3h4p3-0-0-0-8-5-4-|--0-1-3-1-|

Fill 1 x1
   ss e Q  H    H   e e e  e   ss e Q H     e  e  e  e  s s  e e e
|-------------|--------------|------------|------------------------|
|4------------|---------10---|------------|------------------------|
|4------------|--------------|------------|----12-10---------------|
|--00-0-------|-----0-8----8-|-00-0-------|-10-------13-9h10p9-6-5-|

Riff 3 x1
  ss e e  e e  e  ss e   e  e e  e  e e e  e   ss e e  e e  e  ss e
|----------------------|---------------------|----------------------|
|----------------------|----------------10---|----------------------|
|------13---10h12------|-13---10h12----------|------13---10h12------|
|-00-0----0-------00-0-|----0-------0-8----8-|-00-0----0-------00-0-|

  e e e e s s e e e   ss e e  e e  e  ss e   e  e e  e  e e e  e
|-------------------|----------------------|---------------------|
|---8-7-5-----------|----------------------|----------------10---|
|-6-------7h8p7-5-4-|------13---10h12------|-13---10h12----------|
|-------------------|-00-0----0-------00-0-|----0-------0-8----8-|

  ss e e  e e  e  ss e   e  e  e  e  s s  e e e   ss e e  e e  e  ss e
|----------------------|------------------------|----------------------|
|----------------------|------------------------|----------------------|
|------13---10h12------|----12-10---------------|------13---10h12------|
|-00-0----0-------00-0-|-10-------13-9h10p9-6\5-|-00-0----0-------00-0-|

  e  e e  e  e e e  e   ss e e  e e  e  ss e   e e e e s s e e e
|---------------------|----------------------|-------------------|
|----------------10---|----------------------|---8-7-5-----------|
|-13---10h12----------|------13---10h12------|-6-------7h8p7-----|
|----0-------0-8----8-|-00-0----0-------00-0-|---------------5\1-|

Riff 4 x1
 E e e e e e e e   e e e e e e e e   e e e e e e e e    e  e e q  e e e 
|----------------|-----------------|-----------------|------------------|
|----------------|-----------------|-----------------|------------------|
|----6---3h5---6-|---3h5-----------|-----6---3h5---8-|-(8)-8---6--6-----|
|--0---0-----0---|-0-----0-0-0-0-0-|-0-0---0-----0---|-------0------0-0-|

  e e e e e e e e   e e e e e e e e   e e e e e e e e    e  e e q  e e e
|-----------------|-----------------|-----------------|------------------|
|-----------------|-----------------|-----------------|------------------|
|-----6---3h5---6-|---3h5-----------|-----6---3h5-----|------------------|
|-0-0---0-----0---|-0-----0-0-0-0-0-|-0-0---0-----0-3-|-(3)-3-0-1--1-0-0-|

   e  e e e e e e e   e e e e e e e e   e e e e e e e e    e  e e q  e e e
|-------------------|-----------------|-----------------|------------------|
|-------------------|-----------------|-----------------|------------------|
|-------6---3h5---6-|---3h5-----------|-----6---3h5---8-|-(8)-8---6--6-----|
|-(0)-0---0-----0---|-0-----0-0-0-0-0-|-0-0---0-----0---|-------0------0-0-|

   e  e e e e e e e   e e e e e e e e   e e e e e e e e    e  e e q  e ssss
|-------------------|-----------------|-----------------|-------------------|
|-------------------|-----------------|-----------------|-------------------|
|-------6---3h5---6-|---3h5-----------|-----6---3h5-----|-------------------|
|-(0)-0---0-----0---|-0-----0-0-0-0-0-|-0-0---0-----0-3-|-(3)-3-0-1--1-3333-|

Riff 5 x4
  e e  e  e  e e e e   e e  e  e  e e e e   e e  e  e  e e e e   e e  e  e  e e e e
|--------------------|--------------------|--------------------|--------------------|
|--------------------|--------------------|--------------------|--------------------|
|---------12---------|---------12---------|--------------------|--------------------|
|-0-12-13----0-0-0-0-|-0-12-13----0-0-0-0-|-0-12-13-11-0-0-0-0-|-0-12-13-10-0-0-0-0-|

                                                                            ( 3 ) ( 3 )
  e e  e  e  e e e e   e e  e  e  e e e e   e e  e  e  e e e e   e e  e  e  e e e e e e
|--------------------|--------------------|--------------------|------------------------|
|--------------------|--------------------|--------------------|------------------------|
|---------12---------|---------12---------|--------------------|------------------------|
|-0-12-13----0-0-0-0-|-0-12-13----0-0-0-0-|-0-12-13-11-0-0-0-0-|-0-12-13-10-6-5-4-5-4-3-|
                                                                            ^
                                          On 2nd time play this note only, not the rest
Fill 2 x1
   ( 3 ) ( 3 )
   e e e e e e    e Q. H     W        w           w            w            w
|--------------|-----------|--------|----------|------------|------------|------------|
|2-------------|4----------|---x3---|----------|------------|------------|------------|
|4-6-5-4/8-7-6-|4----------|---x3---|----------|------------|------------|------------|
|--------------|--0--------|--------|-0--------|-(0)--------|-(0)--------|-(0)--------|

Riff 6 x2
  (  3 )  (  3  )  (  3  )  (  3  )    (  3 )  (  3  )  (  3  )  (  3  )
  e e  e  e  e  e  e  e  e  e  e  e    e e  e  e  e  e  e  e  e  e  e  e
|------------------------------------|------------------------------------|
|---------------------------11-------|------------------------------------|
|---------12----------12-13----13-12-|---------12----------------13-12-11-|
|-0-12-13----13-12-13----------------|-0-12-13----13-12-11-12-10----------|

  (  3 )  (  3  )  (  3  )  (  3  )    (  3 )  (  3  )  ( 3 ) ( 3 )
  e e  e  e  e  e  e  e  e  e  e  e    e e  e  e  e  e  e e e e e e
|------------------------------------|------------------------------|
|---------------------------11-------|------------------------------|
|---------12----------12-13----13-12-|---------12-------------------|
|-0-12-13----13-12-13----------------|-0-12-13----13-12-5-8-4-7-5-3-|

Riff 7 x4
       ( 3 ) ( 3 )        ( 3 ) ( 3 )        ( 3 ) ( 3 )   ( 3 ) ( 3 ) ( 3 ) ( 3 )
  h    e e e e e e   h    e e e e e e   h    e e e e e e   e e e e e e e e e e e e
|------------------|------------------|------------------|-------------------------|
|------------------|------------------|------------------|-------------------------|
|------------------|------------------|------------------|-4-5-4-8-7-6-------------|
|-0----5-8-4-7-5-3-|-1----5-8-4-7-5-3-|-3----5-8-4-7-5-3-|-------------6-5-4-5-4-3-|

Riff 8 x12
  ( 3 ) ( 3 ) ( 3 ) ( 3 )   ( 3 )
  e e e e e e e e e e e e   e e e Q H
|-------------------------|--------------|
|-------------------------|--------------|
|-------------------------|--------------|
|-0-0-0-0-0-0-0-0-0-0-0-0-|-0-0-0--------|

Riff 9 x4
  ( 3 ) ( 3 ) ( 3 ) ( 3 )   ( 3 ) ( 3 ) ( 3 ) ( 3 )   ( 3 ) ( 3 ) ( 3 ) ( 3 )
  e e e e e e e e e e e e   e e e e e e e e e e e e   e e e e e e e e e e e e
|-------------------------|-------------------------|-------------------------|
|-------------------------|-------------------------|-------------------------|
|-------------------------|-------------------------|-------------------------|
|-0-0-0-0-0-0-0-0-0-0-0-0-|-1-1-1-1-1-1-1-1-1-1-1-1-|-8-8-8-8-8-8-8-8-8-8-8-8-|

  ( 3 ) ( 3 ) ( 3 ) ( 3 )
  e e e e e e e e e e e e
|-------------------------|
|-------------------------|
|-------------------------|
|-7-7-7-7-7-7-5-8-4-7-5-3-|

End by holding an open D for 3 bars
Suggest correction
Creating personal tab
Creating personal tab
You can edit any tab online and save it as your Personal.

You can edit, replace or remove any tab part or add personal notes – all changes will be seen only by you.

Personal tabs can be accessed anytime from any device, even offline.
Learn more »
comments
print report bad tab
11 comments total. Showing first comments.
-1 reply
Dtallica 10 Dec 21, 2006 04:51 AM

excellant tab dude good effort

-1 reply
pyrobonez 87 Mar 14, 2007 04:05 PM

very very nice 5*

0 reply
escalade 346 Mar 31, 2007 11:40 AM

pretty good except john said in an interview that he almost always play just on the two lower strings, and in the vomit riff, he only plays 0-0-0-0 and 5-9-5-8-7-3 on the lox D string. but besides that it good

guest
You may want to rate the tab now too:
select rating
Wanna post a correction for this tab? Suggest correction