Oops, an error
Loading. Please wait.
We have an official Hourglass tab made by UG professional guitarists. Check out the tab »
×
8,848 views 9 this week
8 commentsread comments
1 2 3 4 5
x 11
add to favorites
×
Save as Personal and add changes to this tab that will be seen only by you. Learn more ›
×
You can save this tab as Personal to edit and correct it or add notes. All changes will be seen only by you. Learn more »
launch autoscroll
font size
0
reset
how to read this tab
guitar tuner
backing track
0:00
0:00
edit
Autoscroll
slow
fast
+/-
esc
set tempo
stop
    this tab is by max silva , a 14 year old kid this is pretty much the  first song ive
by myself and put on the internet so im not sure if its that good of a tab plus i did
at school

. = palm mute
~ = hold the note
\ = slide up
/ = slide down
h = hammer on

                                        (1st ending)
E|-------------------------------||------------------------------------||
B|-------------------------------||------------------------------------||
G|-------------------------------||------------------------------------||
D|-------------------------------||-----------------------10-9-15-14---||
A|-------7-8----8-10-------------||--------7-8----8-12-----------------||
D|000-000----000-----000-3-7-6-2-||-000-000----000-----000-------------||
  ... ...    ...     ...            ... ...    ...     ...

  (2nd ending)
E|---------------------------------------------------||
B|---------------------------------------------------||
G|---------------------------------------------------|| (play thruogh both
D|---------------------------------------------------||  endings X's 2)
A|---------------------------------------------------||
D|000-000-13-12-000--12-11-000--12-13-16\17/16-------||
  ... ...       ...        ...   .  .


E|-------||-----------------------------------------------||
B|-------||-----------------------------------------------||
G|-------||-----------------------------------------------||
D|-------||-----------------------------------------------||
A|0-0-0--||------------------------------------13-12-11---||
D|0-0-0--||0-0-0-13-12-0-0-12-14\15/14--0-0-0-------------||
  . . .    . . .       . .  .           . . .


E|-----------------------------------------------------------------||
B|-----------------------------------------------------------------||
G|-----------------------------------------------------------------||
D|-----------------------------------------------------------------||
A|-----------------------------------------------------------------||
D|0-0-0-13-12-0-0-12-11-0-0-0-0-0-0-0-0-0-0-0-13-12-0-0-1-4\5/4----||
  . . .       . .       . . . . . . . . . . .       . . .


E|--------------||----------||
B|--------------||----------||
G|--------------||----------||
D|--------------||----------||
A|--------------||----------||
D|0-0-0-8-5-4---||0-0-0-0---||
  . . .           . . . .


E|-------------------------------------------------------|
B|-------------------------------------------------------|
G|-------------------------------------------------------|
D|-----------------------------10------------------------|
A|---13---10h12----13---10h12-----------13---10h12-------|
D|000---0-------000---0-------8---8--000---0-------000---|
  ...   .       ...   .       .      ...   .       ...

E|----------------------||-----------------------------------------------|
B|----------------------||-----------------------------------------------|
G|----------------------||-----------------------------------------------|
D|----------------------||------------------------10---------------------|
A|--12-10---------------||---13--10h12---13-10h12----------13--10h12-----|
D|10-----13-9\10/9-6-5--||000---0-----000--0-----8---8--000---0-----000--|
   . .  . .               ...   .     ...  .     .      ...   .     ...


E|------------------||-----------------------------------------------|
B|------------------||-----------------------------------------------|
G|------------------||-----------------------------------------------|
D|-8-7-5------------||------------------------10---------------------|
A|6------7\8/7-5-4--||---13--10h12---13-10h12----------13--10h12-----|
D|------------------||000---0-----000--0-----8---8--000---0-----000--|
  .. . .              ...   .     ...  .     .      ...   .     ...


E|----------------------||-----------------------------------------------|
B|----------------------||-----------------------------------------------|
G|----------------------||-----------------------------------------------|
D|----------------------||------------------------10---------------------|
A|--12-10---------------||----13-10h12---13-10h12-----------13-10h12-----|
D|10-----13-9\10/9-6-5--||000---0-----000--0-----8---8--000---0-----000--|
   . .  . .               ...   .     ...  .     .      ...   .     ...


E|--------------------||
B|--------------------||
G|--------------------||
D|-8-7-5------8-8-----||
A|6-----7\8/7-6-6-----||
D|----------------0---||
  .. . .          .


                                               (1st ending)
E|-------------------------------------------||--------------------------||
B|-------------------------------------------||--------------------------||
G|-------------------------------------------||--------------------------||
D|8---5\7---8---5\7---------------8---5\7----||10--10---10-10------------||
A|6---3\5---6---3\5---------------6---3\5----||8---8----6--6--0----------||
D|--0-----0---0-----0-0-0-0-0-0-0---0-----0--||-------0-------0--0-------||
    .     .   .     . . . . . . .   .     .           .          .

  (2nd ending)
E|------------------------||
B|------------------------||
G|------------------------||
D|------------------------||
A|3--3-----1--1----0------||
D|3--3--0--1--1--0-0--0---||
        .        .    .


E|------------------------------------------------------------------|
B|------------------------------------------------------------------|
G|------------------------------------------------------------------|
D|------------------------------------------------------------------|
A|-----12----------------12-----------------------------------------|
D|12h13---0-0-0-0-0-12h13---0-0-0-0-0-12h13-11-0-0-0-0-0-12h13-10---|
          . . . . .         . . . . .          . . . . .


E|-------------|
B|-------------|
G|-------------|
D|-------------|
A|-------------|
D|6-5-4-5-4-3--|
  . . . . . .


E|-------------------------------------------------------------------||
B|-------------------------------------------------------------------||
G|-------------------------------------------------------------------||
D|-------------------------------------------------------------------||
A|-----12----------------12------------------------------------------||
D|12h13---0-0-0-0-0-12h13---0-0-0-0-0-12h13-11-0-0-0-0-0-12h13-10--0-||
          . . . . .         . . . . .          . . . . .           .


E|--------------------------------------------------------------------|
B|--------------------------------------------------------------------|
G|--------------------------------------------------------------------|
D|------14-----------------14-----------------------------------------|
A|12h13-12-----------12h13-12-----------12h13-11-----------12h13-10---|
D|12h13----0-0-0-0-0-12h13----0-0-0-0-0-12h13-11-0-0-0-0-0-12h13-10---|
           . . . . .          . . . . .          . . . . .


E|--------------|
B|--------------|
G|--------------|
D|--------------|
A|--------------|
D|6-5-4-5-4-3---|
  . . . . . .


E|--------------------------------------------------------------------|
B|--------------------------------------------------------------------|
G|--------------------------------------------------------------------|
D|------14-----------------14-----------------------------------------|
A|12h13-12-----------12h13-12-----------12h13-11-----------12h13-10---|
D|12h13----0-0-0-0-0-12h13----0-0-0-0-0-12h13-11-0-0-0-0-0-12h13-10---|
           . . . . .          . . . . .          . . . . .


E|--------------------------||
B|--------------------------||
G|--------------------------||
D|--------------------------||
A|------------6-5-4-8-7-6---||
D|6-5-4-5-4-3---------------||
  . . . . . . . . . . . .


  (guitar 1)
E|---------------------------------------------------------------|
B|---------------------------------------------------------------|
G|---------------------------------------------------------------|
D|----------------------11---------------------------------------|
A|-------12--------12-13--13-12--------12--------------13-12-11--|
D|0-12-13--13-12-13-------------0-12-13--13-12-11-12-10----------|
  .  .  .   .  .  .             .  .  .   .  .  .  .  .

                 (play all of this 4 X's)
E|---------------------------------------------------------||
B|---------------------------------------------------------||
G|---------------------------------------------------------||
D|----------------------11---------------------------------||
A|-------12--------12-13--13-12-------12-------------------||
D|0-12-13--13-12-13------------0-12-13--13-12-5-8-4-7-6-3--||
  .  .  .   .  .  .            .  .  .   .  . . . . . . .

  (guitar 2) (play this 2nd time guitar 1 plays their part)
E|0~~~~~~~~~~~~~~~~~~~~~~~~~~~~~~~~~~~~~~~~~~~~~~~~~~~~~~~~
B|3~~~~~~~~~~~~~~~~~~~~~~~~~~~~~~~~~~~~~~~~~~~~~~~~~~~~~~~~
G|2~~~~~~~~~~~~~~~~~~~~~~~~~~~~~~~~~~~~~~~~~~~~~~~~~~~~~~~~
D|0~~~~~~~~~~~~~~~~~~~~~~~~~~~~~~~~~~~~~~~~~~~~~~~~~~~~~~~~
A|0~~~~~~~~~~~~~~~~~~~~~~~~~~~~~~~~~~~~~~~~~~~~~~~~~~~~~~~~
D|0~~~~~~~~~~~~~~~~~~~~~~~~~~~~~~~~~~~~~~~~~~~~~~~~~~~~~~~~


  (guitar 2)
E|--------------------------------------------------------------|
B|--------------------------------------------------------------|
G|--------------------------------------------------------------|
D|----------------------15--------------------------------------|
A|-------15--------15-16--16-15-------15--------------16-15-14--|
D|0-15-16--16-15-16------------0-15-16--16-15-15-16-13----------|
  .  .  .   .  .  .            .  .  .   .  .  .  .  .

   (play these parts twice)
E|---------------------------------------------------------||
B|---------------------------------------------------------||
G|---------------------------------------------------------||
D|----------------------15---------------------------------||
A|-------15--------15-16--16-15-------15-------------------||
D|0-15-16--16-15-16------------0-15-16--16-15-5-8-4-7-6-3--||
  .  .  .   .  .  .            .  .  .   .  . . . . . . .


E|------------------------------------------------------------|
B|------------------------------------------------------------|
G|------------------------------------------------------------|
D|------------------------------------------------------------|
A|0~~------------1~~-------------3~~------------5-6-5-10-8-7--|
D|0~~5-8-4-7-6-3-1~~-5-8-4-7-6-3-3~~-5-8-4-7-6-3--------------|
     . . . . . .     . . . . . .     . . . . . .


E|------------------------------------------------------------------------|
B|------------------------------------------------------------------------|
G|------------------------------------------------------------------------|
D|------------------------------------------------------------------------|
A|------------0~~------------1~~-------------3~~------------5-6-5-10-8-7--|
D|6-5-4-5-4-3-0~~5-8-4-7-6-3-1~~-5-8-4-7-6-3-3~~-5-8-4-7-6-3--------------|
  . . . . . .    . . . . . .     . . . . . .     . . . . . .


E|------------------------------------------------------------------------|
B|------------------------------------------------------------------------|
G|------------------------------------------------------------------------|
D|------------------------------------------------------------------------|
A|------------0~~------------1~~-------------3~~------------5-6-5-10-8-7--|
D|6-5-4-5-4-3-0~~5-8-4-7-6-3-1~~-5-8-4-7-6-3-3~~-5-8-4-7-6-3--------------|
  . . . . . .    . . . . . .     . . . . . .     . . . . . .


E|------------------------------------------------------------------------||
B|------------------------------------------------------------------------||
G|------------------------------------------------------------------------||
D|------------------------------------------------------------------------||
A|------------0~~------------1~~-------------3~~------------5-6-5-10-8-7--||
D|6-5-4-5-4-3-0~~5-8-4-7-6-3-1~~-5-8-4-7-6-3-3~~-5-8-4-7-6-3--------------||
  . . . . . .    . . . . . .     . . . . . .     . . . . . .


E|-------------------------------------||
B|-------------------------------------||
G|-------------------------------------||
D|-------------------------------------||
A|------------0-0-0-0-0-0-0-0-0-0-0-0--||
D|6-5-4-5-4-3-0-0-0-0-0-0-0-0-0-0-0-0--||
  . . . . . . . . . . . . . . . . . .


E|-------------------------||
B|-------------------------||
G|-------------------------||   (play X's 3)
D|-------------------------||
A|0-0-0-0-0-0-0-0-0-0-0-0--||
D|0-0-0-0-0-0-0-0-0-0-0-0--||
  . . . . . . . . . . . .

  (guitar 1 plays this for the rest of the of song)
E|--------------------------------------------------------------|
B|--------------------------------------------------------------|
G|--------------------------------------------------------------|
D|----------------------11--------------------------------------|
A|-------12--------12-13--13-12-------12--------------13-12-11--|
D|0-12-13--13-12-13------------0-12-13--13-12-11-12-10----------|
  .  .  .   .  .  .            .  .  .   .  .  .  .  .


E|---------------------------------------------------------||
B|---------------------------------------------------------||
G|---------------------------------------------------------||
D|----------------------11---------------------------------||
A|-------12--------12-13--13-12-------12-------------------||
D|0-12-13--13-12-13------------0-12-13--13-12-5-8-4-7-6-3--||
  .  .  .   .  .  .            .  .  .   .  . . . . . . .

  (guitar 2 does this 4 more times)
E|-------------------------||
B|-------------------------||
G|-------------------------||
D|-------------------------||
A|0-0-0-0-0-0-0-0-0-0-0-0--||
D|0-0-0-0-0-0-0-0-0-0-0-0--||
  . . . . . . . . . . . .

  (then guitar 2 does this)
E|--------------------------------------------------|
B|--------------------------------------------------|
G|--------------------------------------------------|
D|--------------------------------------------------|
A|--------------------------------------------------|
D|0-0-0-0-0-0-0-0-0-0-0-0-1-1-1-1-1-1-1-1-1-1-1-1---|
  . . . . . . . . . . . . . . . . . . . . . . . . 

  (play these parts X's 2)
E|--------------------------------------------------||
B|--------------------------------------------------||
G|--------------------------------------------------||
D|--------------------------------------------------||
A|--------------------------------------------------||
D|8-8-8-8-8-8-8-8-8-8-8-8-7-7-7-7-7-7-5-8-4-7-6-3---||
  . . . . . . . . . . . . . . . . . . . . . . . .

  (both guitars keep playing what they are playing at the end of the      song except
stop palm muting)
  (guitar 1)
E|--------------------------------------------------------------|
B|--------------------------------------------------------------|
G|--------------------------------------------------------------|
D|----------------------11--------------------------------------|
A|-------12--------12-13--13-12-------12--------------13-12-11--|
D|0-12-13--13-12-13------------0-12-13--13-12-11-12-10----------|



E|---------------------------------------------------------|
B|---------------------------------------------------------|
G|---------------------------------------------------------|
D|----------------------11---------------------------------|
A|-------12--------12-13--13-12-------12-------------------|
D|0-12-13--13-12-13------------0-12-13--13-12-5-8-4-7-6-3--|



E|--------------------------------------------------------------|
B|--------------------------------------------------------------|
G|--------------------------------------------------------------|
D|----------------------11--------------------------------------|
A|-------12--------12-13--13-12-------12--------------13-12-11--|
D|0-12-13--13-12-13------------0-12-13--13-12-11-12-10----------|



E|---------------------------------------------------------------||
B|---------------------------------------------------------------||
G|---------------------------------------------------------------||
D|----------------------11---------------------------------------||
A|-------12--------12-13--13-12-------12------------------0~~~~~~||
D|0-12-13--13-12-13------------0-12-13--13-12-5-8-4-7-6-3-0~~~~~~||


  (guitar 2)
E|------------------------------------------------|
B|------------------------------------------------|
G|------------------------------------------------|
D|------------------------------------------------|
A|------------------------------------------------|
D|0-0-0-0-0-0-0-0-0-0-0-0-1-1-1-1-1-1-1-1-1-1-1---|

E|--------------------------------------------------|
B|--------------------------------------------------|
G|--------------------------------------------------|
D|--------------------------------------------------|
A|--------------------------------------------------|
D|8-8-8-8-8-8-8-8-8-8-8-8-7-7-7-7-7-7-5-8-4-7-6-3---|


E|--------------------------------------------------|
B|--------------------------------------------------|
G|--------------------------------------------------|
D|--------------------------------------------------|
A|--------------------------------------------------|
D|0-0-0-0-0-0-0-0-0-0-0-0-1-1-1-1-1-1-1-1-1-1-1-1---|

E|-------------------------------------------------------||
B|-------------------------------------------------------||
G|-------------------------------------------------------||
D|-------------------------------------------------------||
A|------------------------------------------------0~~~~~~||
D|8-8-8-8-8-8-8-8-8-8-8-8-7-7-7-7-7-7-5-8-4-7-6-3-0~~~~~~||

      thats the whole song.............yep

            
            
Suggest correction
Creating personal tab
Creating personal tab
You can edit any tab online and save it as your Personal.

You can edit, replace or remove any tab part or add personal notes – all changes will be seen only by you.

Personal tabs can be accessed anytime from any device, even offline.
Learn more »
comments
print report bad tab
8 comments total. Showing first comments.
0 reply
mysteryguitar 10 Apr 24, 2006 11:40 AM

HOLY HELL KID. this took a lot of listening to. anyway good job but theres a few errors. such as, Willie and the other guitarist likes to play as lowas possible on this song sometimes. so some of the stuff up there might just be on the string above and lower.

0 reply
K.B Spades 73 Sep 12, 2006 08:30 PM

max are u portugese?

0 reply
Shreddist 10 Sep 30, 2006 09:16 AM

dude... wicked tab.... good job. took me forever to figure out a couple of those tricky parts... rock on.

guest
You may want to rate the tab now too:
select rating
Wanna post a correction for this tab? Suggest correction