Oops, an error
Loading. Please wait.
We have an official Hourglass tab made by UG professional guitarists. Check out the tab »
×
1,976 views 33 this week
no commentswrite comment
1 2 3 4 5
x 3
add to favorites
×
Save as Personal and add changes to this tab that will be seen only by you. Learn more ›
×
You can save this tab as Personal to edit and correct it or add notes. All changes will be seen only by you. Learn more »
launch autoscroll
font size
0
reset
how to read this tab
guitar tuner
backing track
0:00
0:00
edit
Autoscroll
slow
fast
+/-
esc
set tempo
stop
|--------------------------------------------------------------------------------------------------------|
|                                         LAMB OF GOD - HOURGLASS                                        |
|                                      Album: Ashes of the Wake (2004)                                   |
|--------------------------------------------------------------------------------------------------------|

                   If you have questions or corrections feel free to send me a message:
                                http://profile.ultimate-guitar.com/godspeedy/
                                    https://www.facebook.com/Godspeedy14
                     
                Also check out my Youtube channel: http://www.youtube.com/user/Godspeedy14

                                         Tuning: 6 string DADGBE

                                I used following videos to make this tab:

                               https://www.youtube.com/watch?v=hwVKMdmXvT8
                               https://www.youtube.com/watch?v=2M211T5f_XQ
                               https://www.youtube.com/watch?v=CHZb0OvfSRE 
                               https://www.youtube.com/watch?v=Hw7zYploBLc
                                                    
*********************************************GUITAR NOTATIONS*********************************************
*                                                                                                        *
*                                      | *   palm mute           |                                       *
*                                      | s   slide               |                                       *
*                                      | s\  slide downwards     |                                       *
*                                      | /s  slide in from below |                                       *
*                                      | h   hammer-on           |                                       *
*                                      | ..  let ring            |                                       *
*                                      | П   downstroke          |                                       *
*                                      | V   upstroke            |                                       *
*                                                                                                        *
**********************************************************************************************************

|--------------------------------------------------------------------------------------------------------|
|                                          PART 1 (00:00-00:23)                                          |
|--------------------------------------------------------------------------------------------------------|

I. Guitar 1 (w/ dist)
   
   П V П  П V П  П     П V П   П      П V П  П  V  П  V ---------------|
E|---------------------------|--------------------------|              |
B|---------------------------|--------------------------|              |
G|---------------------------|--------------------------|              |
D|---------------------------|--------------------------|              |
A|---------------7-h8--------|-8-h10--------------------|              |
D|-0-0-0--0-0-0--------0-0-0-|--------0-0-0--3--7--6--2-|              | 
   * * *  * * *        * * *          * * *                            |
                                                                       |
   П V П  П V П  П     П V П   П      П V П  П  V  П   V               |
E|---------------------------|---------------------------|             |
B|---------------------------|---------------6--5-s10--9-|             |
G|---------------------------|---------------------------|             |
D|---------------------------|---------------------------|             |
A|---------------7-h8--------|-8-h12---------------------|             |
D|-0-0-0--0-0-0--------0-0-0-|--------0-0-0--------------|             |
   * * *  * * *        * * *          * * *                            |
                                                                       | x2
   П V П  П V П  П     П V П   П      П V П  П  V  П  V                |
E|---------------------------|--------------------------|              |
B|---------------------------|--------------------------|              |
G|---------------------------|--------------------------|              |
D|---------------------------|--------------------------|              |
A|---------------7-h8--------|-8-h10--------------------|              |
D|-0-0-0--0-0-0--------0-0-0-|--------0-0-0--3--7--6--2-|              |
   * * *  * * *        * * *          * * *                            |
                                                                       |
   П V П  П V П  П   V   П V П   П   V   П V П  П  V   П               |
E|-----------------------------|--------------------------------|      |
B|-----------------------------|--------------------------------|      |
G|-----------------------------|--------------------------------|      |
D|-----------------------------|--------------------------------|      |
A|-----------------------------|--------------------------------|      |
D|-0-0-0--0-0-0--13--12--0-0-0-|-12--11--0-0-0--0--13--16s17s16-|      |
   * * *  * * *          * * *           * * *  *  *   ----------------|

  Guitar 2 (w/ dist)

   П V П  П V П  П     П V П   П      П V П  П  V  П  V ---------------|
E|---------------------------|--------------------------|              |
B|---------------------------|--------------------------|              |
G|---------------------------|--------------------------|              |
D|---------------------------|--------------------------|              |
A|---------------7-h8--------|-8-h10--------------------|              |
D|-0-0-0--0-0-0--------0-0-0-|--------0-0-0--3--7--6--2-|              |
   * * *  * * *        * * *          * * *                            |
                                                                       |
   П V П  П V П  П     П V П   П      П V П  П  V   П   V              |
E|---------------------------|----------------------------|            |
B|---------------------------|----------------------10--9-|            |
G|---------------------------|---------------10--9--------|            |
D|---------------------------|----------------------------|            |
A|---------------7-h8--------|-8-h12----------------------|            |
D|-0-0-0--0-0-0--------0-0-0-|--------0-0-0---------------|            |
   * * *  * * *        * * *          * * *                            |
                                                                       | x2
   П V П  П V П  П     П V П   П      П V П  П  V  П  V                |
E|---------------------------|--------------------------|              |
B|---------------------------|--------------------------|              |
G|---------------------------|--------------------------|              |
D|---------------------------|--------------------------|              |
A|---------------7-h8--------|-8-h10--------------------|              |
D|-0-0-0--0-0-0--------0-0-0-|--------0-0-0--3--7--6--2-|              |
   * * *  * * *        * * *          * * *                            |
                                                                       |
   П V П  П V П  П   V   П V П   П   V   П V П  П  V   П               |
E|-----------------------------|--------------------------------|      |
B|-----------------------------|--------------------------------|      |
G|-----------------------------|--------------------------------|      |
D|-----------------------------|--------------------------------|      |
A|-----------------------------|--------------------------------|      |
D|-0-0-0--0-0-0--13--12--0-0-0-|-12--11--0-0-0--0--13--16s17s16-|      |
   * * *  * * *          * * *           * * *  *  *   ----------------|

II. Guitars 1 and 2 (w/ dist)
   
   П  П  П
E|--------------------|
B|--------------------|
G|--------------------|
D|--------------------|
A|-0--0--0------------|
D|-0--0--0------------|
   *  *  * 

|--------------------------------------------------------------------------------------------------------|
|                                          PART 2 (00:23-00:42)                                          |
|--------------------------------------------------------------------------------------------------------|

Guitars 1 and 2 (w/ dist)
   
   П  П  П  П   V   П  П  П    V   П  П  П  П  П  П  П -------------|
E|---------------------------|-------------------------|            |
B|---------------------------|-------------------------|            |
G|---------------------------|-------------------------|            |
D|---------------------------|-------------------------|            |
A|---------------------------|-------------------------|            |
D|-0--0--0--13--12--0--0--12-|-11--0--0--0--0--0--0--0-|            |
   *  *  *          *  *           *  *  *  *  *  *  *              |
                                                                    |
   П  П  П  П   V   П  П  V    П         П  П  П  П   V   П         |
E|---------------------------|-------------------------------|      |
B|---------------------------|-------------------------------|      |
G|---------------------------|-------------------------------|      |
D|---------------------------|-------------------------------|      |
A|---------------------------|--------------------13--12--11-|      |
D|-0--0--0--13--12--0--0--13-|-16s17s16--0--0--0-------------|      |
   *  *  *          *  *  *              *  *  *                    |
                                                                    | x2
   П  П  П  П   V   П  П  П    V   П  П  П  П  П  П  П              |
E|---------------------------|-------------------------|            |
B|---------------------------|-------------------------|            |
G|---------------------------|-------------------------|            |
D|---------------------------|-------------------------|            |
A|---------------------------|-------------------------|            |
D|-0--0--0--13--12--0--0--12-|-11--0--0--0--0--0--0--0-|            | 
   *  *  *          *  *           *  *  *  *  *  *  *              |
                                                                    |
   П  П  П  П   V   П  П  V   П      П  П  П  П  V  П               |
E|--------------------------|-------------------------|             |
B|--------------------------|-------------------------|             |
G|--------------------------|-------------------------|             |
D|--------------------------|-------------------------|             |
A|--------------------------|-------------------------|             |
D|-0--0--0--13--12--0--0--1-|-3s4s3--0--0--0--8--5--4-|             |
   *  *  *          *  *  *          *  *  *   ---------------------|
  
   П  П  П  П
E|------------|
B|------------|
G|------------|
D|------------|
A|------------|
D|-0--1--3--1-|
   *  *  *  *
                                    
|--------------------------------------------------------------------------------------------------------|
|                                          PART 3 (00:42-01:03)                                          |
|--------------------------------------------------------------------------------------------------------|

Guitar 1 (w/ dist)

   П V П  П   П  П       П V П   П   П  П       П  П  V   П
E|-----------------------------|----------------------------|
B|-----------------------------|----------------------------|
G|-----------------------------|----------------------------|
D|-----------------------------|----------------------10----|
A|--------13-----10-h12--------|-13-----10-h12--------------|
D|-0-0-0------0----------0-0-0-|-----0----------0--8------8-|
   * * *      *          * * *       *          *  *

   П V П  П   П  П       П V П   П   V   П   V   П       V  П
E|-----------------------------|------------------------------|
B|-----------------------------|------------------------------|
G|-----------------------------|------------------------------|
D|-----------------------------|------------------------------|
A|--------13-----10-h12--------|-----12--10-------------------|
D|-0-0-0------0----------0-0-0-|-10----------13--9s10s9-s6-s5-|
   * * *      *          * * *   *   *   *   *    

   П V П  П   П  П       П V П   П   П  П       П  V  П   V    
E|-----------------------------|----------------------------|
B|-----------------------------|----------------------------|
G|-----------------------------|----------------------------|
D|-----------------------------|----------------------10----|
A|--------13-----10-h12--------|-13-----10-h12--------------|
D|-0-0-0------0----------0-0-0-|-----0----------0--8------8-|
   * * *      *          * * *       *          *  *

   П V П  П   П  П       П V П   П  V  П  V   П      V  П
E|-----------------------------|--------------------------|
B|-----------------------------|--------------------------|
G|-----------------------------|--------------------------|
D|-----------------------------|----8--7------------------|
A|--------13-----10-h12--------|-6--------10--7s8s7-s5-s4-|
D|-0-0-0------0----------0-0-0-|--------------------------|
   * * *      *          * * *   *  *  *  *

   П V П  П   П  П       П V П   П   П  П       П  V  П   V
E|-----------------------------|----------------------------|
B|-----------------------------|----------------------------|
G|-----------------------------|----------------------------|
D|-----------------------------|----------------------10----|
A|--------13-----10-h12--------|-13-----10-h12--------------|
D|-0-0-0------0----------0-0-0-|-----0----------0--8------8-|
   * * *      *          * * *       *          *  *

   П V П  П   П  П       П V П   П   V   П   V   П       V  П
E|-----------------------------|------------------------------|
B|-----------------------------|------------------------------|
G|-----------------------------|------------------------------|
D|-----------------------------|------------------------------|
A|--------13-----10-h12--------|-----12--10-------------------|
D|-0-0-0------0----------0-0-0-|-10----------13--9s10s9-s6-s5-|
   * * *      *          * * *   *   *   *   * 

   П V П  П   П  П       П V П   П   П  П       П  V  П   V       
E|-----------------------------|----------------------------|
B|-----------------------------|----------------------------|
G|-----------------------------|----------------------------|
D|-----------------------------|----------------------10----|
A|--------13-----10-h12--------|-13-----10-h12--------------|
D|-0-0-0------0----------0-0-0-|-----0----------0--8------8-|
   * * *      *          * * *       *          *  *
   
   П V П  П   П  П       П V П   П  V  П  V  П      П  П
E|-----------------------------|-------------------------|
B|-----------------------------|-------------------------|
G|-----------------------------|-------------------------|
D|-----------------------------|----8--7--5--------------|
A|--------13-----10-h12--------|-6-----------7s8s7--5--1-|
D|-0-0-0------0----------0-0-0-|--------------------5--1-|
   * * *      *          * * *   *  *  *  *

Guitar 2 (w/ dist)

   П V П                                           П  V   П
E|-----------------------------|----------------------------|
B|-----------------------------|----------------------------|
G|-----------------------------|----------------------------|
D|-----------------------------|----------------------10----|
A|-----------------------------|----------------------------|
D|-0-0-0-----------------------|-------------------8------8-|
   * * *                                           *

   П V П
E|-----------------------------|----------------------------|
B|-----------------------------|----------------------------|
G|-----------------------------|----------------------------|
D|-----------------------------|----------------------------|
A|-----------------------------|----------------------------|
D|-0-0-0-----------------------|----------------------------|
   * * *     
  
   П V П  П   П  П       П V П   П   П  П       П  V  П   V   
E|-----------------------------|----------------------------|
B|-----------------------------|----------------------------|
G|-----------------------------|----------------------------|
D|-----------------------------|----------------------10----|
A|--------13-----10-h12--------|-13-----10-h12--------------|
D|-0-0-0------0----------0-0-0-|-----0----------0--8------8-|
   * * *      *          * * *       *          *  *

   П V П  П   П  П       П V П   П  V  П  V   П      V  П
E|-----------------------------|--------------------------|
B|-----------------------------|--------------------------|
G|-----------------------------|--------------------------|
D|-----------------------------|----8--7------------------|
A|--------13-----10-h12--------|-6--------10--7s8s7-s5-s4-|
D|-0-0-0------0----------0-0-0-|--------------------------|
   * * *      *          * * *   *  *  *  *

   П V П  П   П  П       П V П   П   П  П       П  V  П   V 
E|-----------------------------|----------------------------|
B|-----------------------------|----------------------------|
G|-----------------------------|----------------------------|
D|-----------------------------|----------------------10----|
A|--------13-----10-h12--------|-13-----10-h12--------------|
D|-0-0-0------0----------0-0-0-|-----0----------0--8------8-|
   * * *      *          * * *       *          *  *

   П V П  П   П  П       П V П   П   V   П   V   П       V  П
E|-----------------------------|------------------------------|
B|-----------------------------|------------------------------|
G|-----------------------------|------------------------------|
D|-----------------------------|------------------------------|
A|--------13-----10-h12--------|-----12--10-------------------|
D|-0-0-0------0----------0-0-0-|-10----------13--9s10s9-s6-s5-|
   * * *      *          * * *   *   *   *   *     

   П V П  П   П  П       П V П   П   П  П       П  V  П   V    
E|-----------------------------|----------------------------|
B|-----------------------------|----------------------------|
G|-----------------------------|----------------------------|
D|-----------------------------|----------------------10----|
A|--------13-----10-h12--------|-13-----10-h12--------------|
D|-0-0-0------0----------0-0-0-|-----0----------0--8------8-|
   * * *      *          * * *       *          *  *

   П V П  П   П  П       П V П   П  V  П  V  П      П  П
E|-----------------------------|-------------------------|
B|-----------------------------|-------------------------|
G|-----------------------------|-------------------------|
D|-----------------------------|----8--7--5--------------|
A|--------13-----10-h12--------|-6-----------7s8s7--5--1-|
D|-0-0-0------0----------0-0-0-|--------------------5--1-|
   * * *      *          * * *   *  *  *  *

|--------------------------------------------------------------------------------------------------------|
|                                          PART 4 (01:03-01:24)                                          |
|--------------------------------------------------------------------------------------------------------|

Guitars 1 and 2 (w/ dist)

     П  П  П  П     П  П   П  П     П  П  П  П  П     П  П  П  П     П  П    V  П  П   V  П  П
E|-----------------------|------------------------|------------------------|-------------------|
B|-----------------------|------------------------|------------------------|-------------------|
G|-----------------------|------------------------|------------------------|-------------------|
D|------8-----5-s7-----8-|----5-s7----------------|------8-----5-s7-----10-|-10----10--10------|
A|------6-----3-s5-----6-|----3-s5----------------|------6-----3-s5-----8--|-8-----6---6-------|
D|---0-----0--------0----|-0--------0--0--0--0--0-|---0-----0--------0-----|----0---------0--0-|
     *     *        *      *        *  *  *  *        *     *        *          *         * 

     П  П  П  П     П  П   П  П     П  П  П  П  П     П  П  П  П     П  П   V  П  П  V  П  П  
E|-----------------------|------------------------|-----------------------|------------------|
B|-----------------------|------------------------|-----------------------|------------------|
G|-----------------------|------------------------|-----------------------|------------------|
D|------8-----5-s7-----8-|----5-s7----------------|------8-----5-s7-----3-|-3-----1--1-------|
A|------6-----3-s5-----6-|----3-s5----------------|------6-----3-s5-----3-|-3-----1--1-------|
D|---0-----0--------0----|-0--------0--0--0--0--0-|---0-----0--------0--3-|-3--0--1--1--0--0-|
     *     *        *      *        *  *  *  *  *     *     *        *         *        *

     П  П  П  П     П  П   П  П     П  П  П  П  П     П  П  П  П     П  П    V  П  П   V  П  П
E|-----------------------|------------------------|------------------------|-------------------|
B|-----------------------|------------------------|------------------------|-------------------|
G|-----------------------|------------------------|------------------------|-------------------|
D|------8-----5-s7-----8-|----5-s7----------------|------8-----5-s7-----10-|-10----10--10------|
A|------6-----3-s5-----6-|----3-s5----------------|------6-----3-s5-----8--|-8-----6---6-------|
D|---0-----0--------0----|-0--------0--0--0--0--0-|---0-----0--------0-----|----0---------0--0-|
     *     *        *      *        *  *  *  *  *     *     *        *          *         * 
 
     П  П  П  П     П  П   П  П     П  П  П  П  П     П  П  П  П     П  П   V  П  П  V  П V П
E|-----------------------|------------------------|-----------------------|-------------------|
B|-----------------------|------------------------|-----------------------|-------------------|
G|-----------------------|------------------------|-----------------------|-------------------|
D|------8-----5-s7-----8-|----5-s7----------------|------8-----5-s7-----3-|-3-----1--1--------|
A|------6-----3-s5-----6-|----3-s5----------------|------6-----3-s5-----3-|-3-----1--1--------|
D|---0-----0--------0----|-0--------0--0--0--0--0-|---0-----0--------0--3-|-3--0--1--1--0-0-0-|
     *     *        *      *        *  *  *  *  *     *     *        *         *        * * *

|--------------------------------------------------------------------------------------------------------|
|                                          PART 5 (01:24-02:09)                                          |
|--------------------------------------------------------------------------------------------------------|

Guitars 1 and 2 (w/ dist)

   П  П   V   П   П  П  П  П   П  П   V   П   П  П  П  П
E|---------------------------|---------------------------|
B|---------------------------|---------------------------|
G|---------------------------|---------------------------|
D|---------------------------|---------------------------|
A|------------12-------------|------------12-------------|
D|-0--12--13------0--0--0--0-|-0--12--13------0--0--0--0-|
   *              *  *  *  *   *              *  *  *  *

   П  П   V   П   П  П  П  П   П  П   V   П   П  П  П  П
E|---------------------------|---------------------------|
B|---------------------------|---------------------------|
G|---------------------------|---------------------------|
D|---------------------------|---------------------------|
A|---------------------------|---------------------------|
D|-0--12--13--11--0--0--0--0-|-0--12--13--10--0--0--0--0-|
   *              *  *  *  *   *              *  *  *  *

   П  П   V   П   П  П  П  П   П  П   V   П   П  П  П  П
E|---------------------------|---------------------------|
B|---------------------------|---------------------------|
G|---------------------------|---------------------------|
D|---------------------------|---------------------------|
A|------------12-------------|------------12-------------|
D|-0--12--13------0--0--0--0-|-0--12--13------0--0--0--0-|
   *              *  *  *  *   *              *  *  *  *

   П  П   V   П   П  П  П  П   П  П   V   П   П  V  П  V  П  V
E|---------------------------|---------------------------------|
B|---------------------------|---------------------------------|
G|---------------------------|---------------------------------|
D|---------------------------|---------------------------------|
A|---------------------------|---------------------------------|
D|-0--12--13--11--0--0--0--0-|-0--12--13--10--6--5--4--5--4--3-|
   *              *  *  *  *   *              *  *  *  *  *  *

   П  П   V   П   П  П  П  П   П  П   V   П   П  П  П  П
E|---------------------------|---------------------------|
B|---------------------------|---------------------------|
G|---------------------------|---------------------------|
D|---------------------------|---------------------------|
A|------------12-------------|------------12-------------|
D|-0--12--13------0--0--0--0-|-0--12--13------0--0--0--0-|
   *              *  *  *  *   *              *  *  *  *

   П  П   V   П   П  П  П  П   П  П   V   П   П  П  П  П
E|---------------------------|---------------------------|
B|---------------------------|---------------------------|
G|---------------------------|---------------------------|
D|---------------------------|---------------------------|
A|---------------------------|---------------------------|
D|-0--12--13--11--0--0--0--0-|-0--12--13--10--0--0--0--0-|
   *              *  *  *  *   *              *  *  *  *

   П  П   V   П   П  П  П  П   П  П   V   П   П  П  П  П
E|---------------------------|---------------------------|
B|---------------------------|---------------------------|
G|---------------------------|---------------------------|
D|---------------------------|---------------------------|
A|------------12-------------|------------12-------------|
D|-0--12--13------0--0--0--0-|-0--12--13------0--0--0--0-|
   *              *  *  *  *   *              *  *  *  *

   П  П   V   П   П  П  П  П   П  П   V   П   П
E|---------------------------|---------------------------|
B|---------------------------|---------------------------|
G|---------------------------|---------------------------|
D|---------------------------|---------------------------|
A|---------------------------|---------------------------|
D|-0--12--13--11--0--0--0--0-|-0--12--13--10--6----------|
   *              *  *  *  *   *              * 

   П  П   V   П   П  П  П  П   П  П   V   П   П  П  П  П --------------|
E|---------------------------|---------------------------|             |
B|---------------------------|---------------------------|             |
G|---------------------------|---------------------------|             |
D|------------14-------------|------------14-------------|             |
A|----12--13--12-------------|----12--13--12-------------|             |
D|-0--12--13------0--0--0--0-|-0--12--13------0--0--0--0-|             |
   *              *  *  *  *   *              *  *  *  *               |
                                                                       |
   П  П   V   П   П  П  П  П   П  П   V   П   П  П  П  П               |
E|---------------------------|---------------------------|             |
B|---------------------------|---------------------------|             |
G|---------------------------|---------------------------|             |
D|---------------------------|---------------------------|             |
A|----12--13--11-------------|----12--13--10-------------|             |
D|-0--12--13--11--0--0--0--0-|-0--12--13--10--0--0--0--0-|             |
   *              *  *  *  *   *              *  *  *  *               |
                                                                       |
   П  П   V   П   П  П  П  П   П  П   V   П   П  П  П  П               | x2
E|---------------------------|---------------------------|             |
B|---------------------------|---------------------------|             |
G|---------------------------|---------------------------|             |
D|------------14-------------|------------14-------------|             |
A|----12--13--12-------------|----12--13--12-------------|             |
D|-0--12--13------0--0--0--0-|-0--12--13------0--0--0--0-|             |
   *              *  *  *  *   *              *  *  *  *               |
                                                                       |
   П  П   V   П   П  П  П  П   П  П   V   П   П  V  П  V  П  V         |
E|---------------------------|---------------------------------|       |
B|---------------------------|---------------------------------|       |
G|---------------------------|---------------------------------|       |
D|---------------------------|---------------------------------|       |
A|----12--13--11-------------|----12--13--10-------------------|       |
D|-0--12--13--11--0--0--0--0-|-0--12--13--10--6--5--4--5--4--3-|       |
   *              *  *  *  *   *              *  *  *  *  *  * --------|

   П  V  П  V  П  V
E|------------------|
B|------------------|
G|------------------|
D|------------------|
A|-6--5--4--8--7--6-|
D|------------------|
   *  *  *  *  *  *

|--------------------------------------------------------------------------------------------------------|
|                                          PART 6 (02:09-02:58)                                          |
|--------------------------------------------------------------------------------------------------------|

I. Guitar 1 (w /dist) - Vomit riff =)

   П  V   П   V   П   V   П   V   П   V   П   V    П  V   П   V   П   V   П   V   П   V   П   V  -----|
E|-----------------------------------------------|-----------------------------------------------|    |
B|-----------------------------------------------|-----------------------------------------------|    |
G|-----------------------------------------------|-----------------------------------------------|    |
D|------------------------------------11---------|-----------------------------------------------|    |
A|------------12--------------12--13------13--12-|------------12----------------------13--12--11-|    |
D|-0--12--13------13--12--13---------------------|-0--12--13------13--12--11--12--10-------------|    |
   *  *   *       *   *   *   *   *                *  *   *       *   *   *   *   *                   |
                                                                                                      |
   П  V   П   V   П   V   П   V   П   V   П   V    П  V   П   V   П   V   П  V  П  V  П  V            | x2
E|-----------------------------------------------|-----------------------------------------|          |
B|-----------------------------------------------|-----------------------------------------|          |
G|-----------------------------------------------|-----------------------------------------|          |
D|------------------------------------11---------|-----------------------------------------|          |
A|------------12--------------12--13------13--12-|------------12---------------------------|          |
D|-0--12--13------13--12--13---------------------|-0--12--13------13--12--5--8--4--7--6--3-|          |
   *  *   *       *   *   *   *   *                *  *   *       *   *   *  *  *  *  *  * -----------|

   Guitar 2 (w/ dist)

4 bars empty, then: 

   П .............................
E|--------|-------|-------|-------|
B|-3------|-------|-------|-------|
G|-2------|-------|-------|-------|
D|-0------|-------|-------|-------|
A|-0------|-------|-------|-------|
D|-0------|-------|-------|-------|

II. Guitar 1 (w/ dist)

   П  V   П   V   П   V   П   V   П   V   П   V    П  V   П   V   П   V   П   V   П   V   П   V  -----|
E|-----------------------------------------------|-----------------------------------------------|    |
B|-----------------------------------------------|-----------------------------------------------|    |
G|-----------------------------------------------|-----------------------------------------------|    |
D|------------------------------------11---------|-----------------------------------------------|    |
A|------------12--------------12--13------13--12-|------------12----------------------13--12--11-|    |
D|-0--12--13------13--12--13---------------------|-0--12--13------13--12--11--12--10-------------|    |
   *  *   *       *   *   *   *   *                *  *   *       *   *   *   *   *                   |
                                                                                                      |
   П  V   П   V   П   V   П   V   П   V   П   V    П  V   П   V   П   V   П  V  П  V  П  V            | x2
E|-----------------------------------------------|-----------------------------------------|          |
B|-----------------------------------------------|-----------------------------------------|          |
G|-----------------------------------------------|-----------------------------------------|          |
D|------------------------------------11---------|-----------------------------------------|          |
A|------------12--------------12--13------13--12-|------------12---------------------------|          |
D|-0--12--13------13--12--13---------------------|-0--12--13------13--12--5--8--4--7--6--3-|          |
   *  *   *       *   *   *   *   *                *  *   *       *   *   *  *  *  *  *  * -----------|

    Guitar 2 (w/ dist)

   П  V   П   V   П   V   П   V   П   V   П   V    П  V   П   V   П   V   П   V   П   V   П   V  -----|
E|-----------------------------------------------|------------------------------------------------|   |
B|-----------------------------------------------|------------------------------------------------|   |
G|-----------------------------------------------|------------------------------------------------|   |
D|------------------------------------15---------|------------------------------------------------|   |
A|------------15--------------15--16------16--15-|------------15----------------------16--15--14--|   |
D|-0--15--16------16--15--16---------------------|-0--15--16------16--15--15--16--14--------------|   |
   *  *   *       *   *   *   *   *                *  *   *       *   *   *   *   *                   |
                                                                                                      |
   П  V   П   V   П   V   П   V   П   V   П   V    П  V   П   V   П   V   П  V  П  V  П  V            | x2
E|-----------------------------------------------|-----------------------------------------|          |
B|-----------------------------------------------|-----------------------------------------|          |
G|-----------------------------------------------|-----------------------------------------|          |
D|------------------------------------15---------|-----------------------------------------|          |
A|------------15--------------15--16------16--15-|------------15---------------------------|          |
D|-0--15--16------16--15--16---------------------|-0--15--16------16--15--5--8--4--7--6--3-|          |
   *  *   *       *   *   *   *   *                *  *   *       *   *   *  *  *  *  *  * -----------|

III. Guitars 1 and 2 (w/ dist)
   
   П    П  V  П  V  П  V   П    П  V  П  V  П  V --------------------|
E|-----------------------|-----------------------|                   |
B|-----------------------|-----------------------|                   |
G|-----------------------|-----------------------|                   |
D|-0---------------------|-1---------------------|                   |
A|-0---------------------|-1---------------------|                   |
D|-0----5--8--4--7--6--3-|-1----5--8--4--7--6--3-|                   |
        *  *  *  *  *  *        *  *  *  *  *  *                     |
                                                                     |
   П    П  V  П  V  П  V   П  V  П  V  П  V  П  V  П  V  П  V        | x4
E|-----------------------|------------------------------------|      |
B|-----------------------|------------------------------------|      |
G|-----------------------|------------------------------------|      |
D|-3---------------------|------------------------------------|      |
A|-3---------------------|-4--5--4--8--7--6-------------------|      |
D|-3----5--8--4--7--6--3-|-------------------6--5--4--5--4--3-|      |
        *  *  *  *  *  *                     *  *  *  *  *  * -------|

|--------------------------------------------------------------------------------------------------------|
|                                          PART 7 (02:58-04:00)                                          |
|--------------------------------------------------------------------------------------------------------|

I. Guitar 1 (w/ dist)
  
   П  V  П  V  П  V  П  V  П  V  П  V   П  V  П
E|------------------------------------|---------------------|
B|------------------------------------|---------------------|
G|------------------------------------|---------------------| x3
D|------------------------------------|---------------------|
A|------------------------------------|---------------------|
D|-0--0--0--0--0--0--0--0--0--0--0--0-|-0--0--0-------------|
   *  *  *  *  *  *  *  *  *  *  *  *   *  *  *
   
   П  V  П  V  П  V  П  V  П  V  П  V   П  V  П        П
E|------------------------------------|---------------------|
B|------------------------------------|---------------------|
G|------------------------------------|---------------------|
D|------------------------------------|---------------------|
A|------------------------------------|---------------------|
D|-0--0--0--0--0--0--0--0--0--0--0--0-|-0--0--0------/s15s\-|
   *  *  *  *  *  *  *  *  *  *  *  *   *  *  *

   П  V   П   V   П   V   П   V   П   V   П   V    П  V   П   V   П   V   П   V   П   V   П   V  -----|
E|-----------------------------------------------|-----------------------------------------------|    |
B|-----------------------------------------------|-----------------------------------------------|    |
G|-----------------------------------------------|-----------------------------------------------|    |
D|------------------------------------11---------|-----------------------------------------------|    |
A|------------12--------------12--13------13--12-|------------12----------------------13--12--11-|    |
D|-0--12--13------13--12--13---------------------|-0--12--13------13--12--11--12--10-------------|    |
   *  *   *       *   *   *   *   *                *  *   *       *   *   *   *   *                   |
                                                                                                      |
   П  V   П   V   П   V   П   V   П   V   П   V    П  V   П   V   П   V   П  V  П  V  П  V            | x2
E|-----------------------------------------------|-----------------------------------------|          |
B|-----------------------------------------------|-----------------------------------------|          |
G|-----------------------------------------------|-----------------------------------------|          |
D|------------------------------------11---------|-----------------------------------------|          |
A|------------12--------------12--13------13--12-|------------12---------------------------|          |
D|-0--12--13------13--12--13---------------------|-0--12--13------13--12--5--8--4--7--6--3-|          |
   *  *   *       *   *   *   *   *                *  *   *       *   *   *  *  *  *  *  * -----------|

   Guitar 2 (w/ dist)

   П  V  П  V  П  V  П  V  П  V  П  V   П  V  П
E|------------------------------------|---------------------|
B|------------------------------------|---------------------|
G|------------------------------------|---------------------| x8
D|------------------------------------|---------------------|
A|------------------------------------|---------------------|
D|-0--0--0--0--0--0--0--0--0--0--0--0-|-0--0--0-------------|
   *  *  *  *  *  *  *  *  *  *  *  *   *  *  *

II. Guitar 1 (w/ dist)

   П  V   П   V   П   V   П   V   П   V   П   V    П  V   П   V   П   V   П   V   П   V   П   V  -----|
E|-----------------------------------------------|-----------------------------------------------|    |
B|-----------------------------------------------|-----------------------------------------------|    |
G|-----------------------------------------------|-----------------------------------------------|    |
D|------------------------------------11---------|-----------------------------------------------|    |
A|------------12--------------12--13------13--12-|------------12----------------------13--12--11-|    |
D|-0--12--13------13--12--13---------------------|-0--12--13------13--12--11--12--10-------------|    |
   *  *   *       *   *   *   *   *                *  *   *       *   *   *   *   *                   |
                                                                                                      |
   П  V   П   V   П   V   П   V   П   V   П   V    П  V   П   V   П   V   П  V  П  V  П  V            | x2
E|-----------------------------------------------|-----------------------------------------|          |
B|-----------------------------------------------|-----------------------------------------|          |
G|-----------------------------------------------|-----------------------------------------|          |
D|------------------------------------11---------|-----------------------------------------|          |
A|------------12--------------12--13------13--12-|------------12---------------------------|          |
D|-0--12--13------13--12--13---------------------|-0--12--13------13--12--5--8--4--7--6--3-|          |
   *  *   *       *   *   *   *   *                *  *   *       *   *   *  *  *  *  *  * -----------|

   П  V   П   V   П   V   П   V   П   V   П   V    П  V   П   V   П   V   П   V   П   V   П   V  -----|
E|-----------------------------------------------|-----------------------------------------------|    |
B|-----------------------------------------------|-----------------------------------------------|    |
G|-----------------------------------------------|-----------------------------------------------|    |
D|------------------------------------11---------|-----------------------------------------------|    |
A|------------12--------------12--13------13--12-|------------12----------------------13--12--11-|    |
D|-0--12--13------13--12--13---------------------|-0--12--13------13--12--11--12--10-------------|    |
                                                                                                      |
                                                                                                      |
   П  V   П   V   П   V   П   V   П   V   П   V    П  V   П   V   П   V   П  V  П  V  П  V            | x2
E|-----------------------------------------------|-----------------------------------------|          |
B|-----------------------------------------------|-----------------------------------------|          |
G|-----------------------------------------------|-----------------------------------------|          |
D|------------------------------------11---------|-----------------------------------------|          |
A|------------12--------------12--13------13--12-|------------12---------------------------|          |
D|-0--12--13------13--12--13---------------------|-0--12--13------13--12--5--8--4--7--6--3-|          |
                                                                                           -----------|

    Guitar 2 (w/ dist)

   П  V  П  V  П  V  П  V  П  V  П  V   П  V  П  V  П  V  П  V  П  V  П  V  
E|------------------------------------|------------------------------------|
B|------------------------------------|------------------------------------|
G|------------------------------------|------------------------------------|
D|------------------------------------|------------------------------------|
A|------------------------------------|------------------------------------|
D|-0--0--0--0--0--0--0--0--0--0--0--0-|-1--1--1--1--1--1--1--1--1--1--1--1-|\
   *  *  *  *  *  *  *  *  *  *  *  *   *  *  *  *  *  *  *  *  *  *  *  *   \
                                                                              x2
   П  V  П  V  П  V  П  V  П  V  П  V   П  V  П  V  П  V  П  V  П  V  П  V   /
E|------------------------------------|------------------------------------|/
B|------------------------------------|------------------------------------|
G|------------------------------------|------------------------------------|
D|------------------------------------|------------------------------------|
A|------------------------------------|------------------------------------|
D|s8--8--8--8--8--8--8--8--8--8--8--8-|-7--7--7--7--7--7--5--8--4--7--6--3-|
   *  *  *  *  *  *  *  *  *  *  *  *   *  *  *  *  *  *  *  *  *  *  *  *

   П  V  П  V  П  V  П  V  П  V  П  V   П  V  П  V  П  V  П  V  П  V  П  V  
E|------------------------------------|------------------------------------|
B|------------------------------------|------------------------------------|
G|------------------------------------|------------------------------------|
D|------------------------------------|------------------------------------|
A|------------------------------------|------------------------------------|
D|-0--0--0--0--0--0--0--0--0--0--0--0-|-1--1--1--1--1--1--1--1--1--1--1--1-|\
                                                                             \
                                                                              x2
   П  V  П  V  П  V  П  V  П  V  П  V   П  V  П  V  П  V  П  V  П  V  П  V   /
E|------------------------------------|------------------------------------|/
B|------------------------------------|------------------------------------|
G|------------------------------------|------------------------------------|
D|------------------------------------|------------------------------------|
A|------------------------------------|------------------------------------|
D|s8--8--8--8--8--8--8--8--8--8--8--8-|-7--7--7--7--7--7--5--8--4--7--6--3-|


III. Guitars 1 and 2 (w/ dist)

   П .............................................................
E|--------|-------|-------|-------|-------|-------|-------|-------|
B|--------|-------|-------|-------|-------|-------|-------|-------|
G|--------|-------|-------|-------|-------|-------|-------|-------|
D|-0------|-------|-------|-------|-------|-------|-------|-------|
A|-0------|-------|-------|-------|-------|-------|-------|-------|
D|-0------|-------|-------|-------|-------|-------|-------|-------|


            
            
Suggest correction
Creating personal tab
Creating personal tab
You can edit any tab online and save it as your Personal.

You can edit, replace or remove any tab part or add personal notes – all changes will be seen only by you.

Personal tabs can be accessed anytime from any device, even offline.
Learn more »
Give kudos to tab author, rate the tab!
1 2 3 4 5
comments
print report bad tab
guest
You may want to rate the tab now too:
select rating
Wanna post a correction for this tab? Suggest correction