Oops, an error
Loading. Please wait.

Laid To Rest Tab

version 1
version 1

Whole song

204,772 views 120 this week
19 commentsread comments
1 2 3 4 5
x 27
add to favorites
launch autoscroll
font size
0
reset
how to read this tab
guitar tuner
×
Best way to learn
"Laid To Rest"
Autoscroll
slow
fast
+/-
esc
set tempo
stop
e|-----------------------------|--------------------------------------|
B|-----------------------------|--------------------------------------|
G|-----------------------------|--------------------------------------|
D|-----------------------------|--------------------------------------|
A|-----------------------------|-----------6--5--3-----------8--5--6--|
E|--------------------0--12/---|--0--0--0-----------0--0--0-----------|

e|---------------------------------------|---------------------------------------|
B|---------------------------------------|---------------------------------------|
G|---------------------------------------|---------------------------------------|
D|---------------------------------------|-----------4-5-4--------------8--7--5--|
A|---------------------------------------|------------------6--------------------|
E|--0--0--0--8--5--4--7--8--7--10--8--7--|--0--0--0------------0--0--0-----------|

e|---------------------------------------|------------------------------------|
B|---------------------------------------|------------------------------------|
G|---------------------------------------|------------------------------------|
D|--4-5-4-----4--------------------------|------------------------------------|
A|---------6-----5--6--3--5-----3--------|--2--2--2--2-------2--2--2--2-------|
E|---------------------------7-----5--7--|--2--2--2--2--3b---2--2--2--2--3b---|

e|-----------------------------------|------------------------------------|
B|-----------------------------------|------------------------------------|
G|-----------------------------------|------------------------------------|
D|-----------------------------------|------------------------------------|
A|------2--2----2--2-----------------|--2--2--2--2-------2--2--2--2-------|
E|------2--2----2--2--3--2--5--4--3--|--2--2--2--2--3b---2--2--2--2--3b---|

e|-----------------------------------|------------------------------------|
B|-----------------------------------|------------------------------------|
G|-----------------------------------|------------------------------------|
D|-----------------------------------|------------------------------------|
A|------2--2----2--2-----------------|--2--2--2--2-------2--2--2--2-------|
E|------2--2----2--2--3--2--5--4--3--|--2--2--2--2--3b---2--2--2--2--3b---|

e|-----------------------------------|------------------------------------|
B|-----------------------------------|------------------------------------|
G|-----------------------------------|------------------------------------|
D|-----------------------------------|------------------------------------|
A|------2--2----2--2-----------------|--2--2--2--2-------2--2--2--2-------|
E|------2--2----2--2--3--2--5--4--3--|--2--2--2--2--3b---2--2--2--2--3b---|

e|-----------------------------------|------------------------------------|
B|-----------------------------------|------------------------------------|
G|-----------------------------------|------------------------------------|
D|-----------------------------------|------------------------------------|
A|------2--2----2--2-----------------|--0--0--0--0--0----0--0--0--0--0----|
E|------2--2----2--2--3--2--3--2--1--|--0--0--0--0--0----0--0--0--0--0----|

e|---------------------------------|------------------------------------|
B|---------------------------------|------------------------------------|
G|---------------------------------|------------------------------------|
D|---------------------------------|------------------------------------|
A|------0--0----0----0--0--0--0----|--0--0--0--0--0----0--0--0--0--0----|
E|------0--0----0----0--0--0--0----|--0--0--0--0--0----0--0--0--0--0----|

e|---------------------------------|------------------------------------|
B|---------------------------------|------------------------------------|
G|---------------------------------|------------------------------------|
D|---------------------------------|------------------------------------|
A|------0--0----0----0--0--0--0----|--0--0--0--0--0----0--0--0--0--0----|
E|------0--0----0----0--0--0--0----|--0--0--0--0--0----0--0--0--0--0----|

e|---------------------------------|------------------------------------|
B|---------------------------------|------------------------------------|
G|---------------------------------|------------------------------------|
D|---------------------------------|------------------------------------|
A|------0--0----0----0--0--0--0----|--0--0--0--0--0----0--0--0--0--0----|
E|------0--0----0----0--0--0--0----|--0--0--0--0--0----0--0--0--0--0----|

e|---------------------------------|------------------------------------|
B|---------------------------------|------------------------------------|
G|---------------------------------|------------------------------------|
D|---------------------------------|------------------------------------|
A|------0--0----0----0--0--0--0----|--2--2--2--2-------2--2--2--2-------|
E|------0--0----0----0--0--0--0----|--2--2--2--2--3b---2--2--2--2--3b---|

e|-----------------------------------|------------------------------------|
B|-----------------------------------|------------------------------------|
G|-----------------------------------|------------------------------------|
D|-----------------------------------|------------------------------------|
A|------2--2----2--2-----------------|--2--2--2--2-------2--2--2--2-------|
E|------2--2----2--2--3--2--5--4--3--|--2--2--2--2--3b---2--2--2--2--3b---|

e|-----------------------------------|--------------------------------------|
B|-----------------------------------|--------------------------------------|
G|-----------------------------------|--------------------------------------|
D|-----------------------------------|--------------------------------------|
A|------2--2----2--2-----------------|-----------6--5--3-----------8--5--6--|
E|------2--2----2--2--3--2--3--2--1--|--0--0--0-----------0--0--0-----------|

e|---------------------------------------|---------------------------------------|
B|---------------------------------------|---------------------------------------|
G|---------------------------------------|---------------------------------------|
D|---------------------------------------|-----------4-5-4--------------8--7--5--|
A|---------------------------------------|------------------6--------------------|
E|--0--0--0--8--5--4--7--8--7--10--8--7--|--0--0--0------------0--0--0-----------|

e|---------------------------------------|--------------------------------------|
B|---------------------------------------|--------------------------------------|
G|---------------------------------------|--------------------------------------|
D|--4-5-4-----4--------------------------|--------------------------------------|
A|---------6-----5--6--3--5-----3--------|-----------6--5--3-----------8--5--6--|
E|---------------------------7-----5--7--|--0--0--0-----------0--0--0-----------|

e|---------------------------------------|---------------------------------------|
B|---------------------------------------|---------------------------------------|
G|---------------------------------------|---------------------------------------|
D|---------------------------------------|-----------4-5-4--------------8--7--5--|
A|---------------------------------------|------------------6--------------------|
E|--0--0--0--8--5--4--7--8--7--10--8--7--|--0--0--0------------0--0--0-----------|

e|---------------------------------------|--------------------------------------|
B|---------------------------------------|--------------------------------------|
G|---------------------------------------|--------------------------------------|
D|--4-5-4-----4--------------------------|--------------------------------------|
A|---------6-----5--6--3--5-----3--------|-----------6--5--3-----------8--5--6--|
E|---------------------------7-----5--7--|--0--0--0-----------0--0--0-----------|

e|---------------------------------------|---------------------------------------|
B|---------------------------------------|---------------------------------------|
G|---------------------------------------|---------------------------------------|
D|---------------------------------------|-----------4-5-4--------------8--7--5--|
A|---------------------------------------|------------------6--------------------|
E|--0--0--0--8--5--4--7--8--7--10--8--7--|--0--0--0------------0--0--0-----------|

e|---------------------------------------|--------------------------------------|
B|---------------------------------------|--------------------------------------|
G|---------------------------------------|--------------------------------------|
D|--4-5-4-----4--------------------------|--------------------------------------|
A|---------6-----5--6--3--5-----3--------|-----------6--5--3-----------8--5--6--|
E|---------------------------7-----5--7--|--0--0--0-----------0--0--0-----------|

e|---------------------------------------|---------------------------------------|
B|---------------------------------------|---------------------------------------|
G|---------------------------------------|---------------------------------------|
D|---------------------------------------|-----------4-5-4--------------8--7--5--|
A|---------------------------------------|------------------6--------------------|
E|--0--0--0--8--5--4--7--8--7--10--8--7--|--0--0--0------------0--0--0-----------|

e|---------------------------------------|------------------------------------|
B|---------------------------------------|------------------------------------|
G|---------------------------------------|------------------------------------|
D|--4-5-4-----4--------------------------|------------------------------------|
A|---------6-----5--6--3--5-----3--------|------------------------------------|
E|---------------------------7-----5--7--|--0----0--6--3--5--0----0--1--3--1--|

e|------------------------------------|------------------------------------|
B|------------------------------------|------------------------------------|
G|------------------------------------|------------------------------------|
D|------------------------------------|------------------------------------|
A|------------------------------------|------------------------------------|
E|--0----0--6--3--5--0--1--3--4b---1--|--0----0--6--3--5--0----0--1--3--1--|

e|------------------------------------|--------------------------------------|
B|------------------------------------|--------------------------------------|
G|------------------------------------|--------------------------------------|
D|------------------------------------|--------------------------------------|
A|------------------------------------|--0--0--0-----------0--0--0-----------|
E|--0----0--6--3--5--0--1--3--4b---1--|--0--0--0--6--3--5--0--0--0--1--3--1--|

e|-------------------------------------|--------------------------------------|
B|-------------------------------------|--------------------------------------|
G|-------------------------------------|--------------------------------------|
D|-------------------------------------|--------------------------------------|
A|--0--0--0----------------------------|--0--0--0-----------0--0--0-----------|
E|--0--0--0--6--3--5--0--1--3--4b---1--|--0--0--0--6--3--5--0--0--0--1--3--1--|

e|-------------------------------------|------------------------------------|
B|-------------------------------------|------------------------------------|
G|-------------------------------------|------------------------------------|
D|-------------------------------------|------------------------------------|
A|--0--0--0----------------------------|--2--2--2--2-------2--2--2--2-------|
E|--0--0--0--6--3--5--0--1--3--4b---2--|--2--2--2--2--3----2--2--2--2--3----|

e|-----------------------------------|------------------------------------|
B|-----------------------------------|------------------------------------|
G|-----------------------------------|------------------------------------|
D|-----------------------------------|------------------------------------|
A|------2--2----2--2-----------------|--2--2--2--2-------2--2--2--2-------|
E|------2--2----2--2--3--2--5--4--3--|--2--2--2--2--3----2--2--2--2--3----|

e|-----------------------------------|--------------------------------------|
B|-----------------------------------|--------------------------------------|
G|-----------------------------------|--------------------------------------|
D|-----------------------------------|--------------------------------------|
A|------2--2----2--2-----------------|-----------6--5--3-----------8--5--6--|
E|------2--2----2--2--3--2--3--2--1--|--0--0--0-----------0--0--0-----------|

e|---------------------------------------|---------------------------------------|
B|---------------------------------------|---------------------------------------|
G|---------------------------------------|---------------------------------------|
D|---------------------------------------|-----------4-5-4--------------8--7--5--|
A|---------------------------------------|------------------6--------------------|
E|--0--0--0--8--5--4--7--8--7--10--8--7--|--0--0--0------------0--0--0-----------|

e|---------------------------------------|--------------------------------------|
B|---------------------------------------|--------------------------------------|
G|---------------------------------------|--------------------------------------|
D|--4-5-4-----4--------------------------|--------------------------------------|
A|---------6-----5--6--3--5-----3--------|-----------6--5--3-----------8--5--6--|
E|---------------------------7-----5--7--|--0--0--0-----------0--0--0-----------|

e|---------------------------------------|---------------------------------------|
B|---------------------------------------|---------------------------------------|
G|---------------------------------------|---------------------------------------|
D|---------------------------------------|-----------4-5-4--------------8--7--5--|
A|---------------------------------------|------------------6--------------------|
E|--0--0--0--8--5--4--7--8--7--10--8--7--|--0--0--0------------0--0--0-----------|

e|---------------------------------------|--------------------------------------|
B|---------------------------------------|--------------------------------------|
G|---------------------------------------|--------------------------------------|
D|--4-5-4-----4--------------------------|--------------------------------------|
A|---------6-----5--6--3--5-----3--------|-----------6--5--3-----------8--5--6--|
E|---------------------------7-----5--7--|--0--0--0-----------0--0--0-----------|

e|---------------------------------------|---------------------------------------|
B|---------------------------------------|---------------------------------------|
G|---------------------------------------|---------------------------------------|
D|---------------------------------------|-----------4-5-4--------------8--7--5--|
A|---------------------------------------|------------------6--------------------|
E|--0--0--0--8--5--4--7--8--7--10--8--7--|--0--0--0------------0--0--0-----------|

e|---------------------------------------|--------------------------------------|
B|---------------------------------------|--------------------------------------|
G|---------------------------------------|--------------------------------------|
D|--4-5-4-----4--------------------------|--------------------------------------|
A|---------6-----5--6--3--5-----3--------|-----------6--5--3-----------8--5--6--|
E|---------------------------7-----5--7--|--0--0--0-----------0--0--0-----------|

e|---------------------------------------|---------------------------------------|
B|---------------------------------------|---------------------------------------|
G|---------------------------------------|---------------------------------------|
D|---------------------------------------|-----------4-5-4--------------8--7--5--|
A|---------------------------------------|------------------6--------------------|
E|--0--0--0--8--5--4--7--8--7--10--8--7--|--0--0--0------------0--0--0-----------|

e|---------------------------------------|------------------------------------|
B|---------------------------------------|------------------------------------|
G|---------------------------------------|------------------------------------|
D|--4-5-4-----4--------------------------|------------------------------------|
A|---------6-----5--6--3--5-----3--------|------------------------------------|
E|---------------------------7-----5--7--|--0----0--6--3--5--0----0--1--3--1--|

e|------------------------------------|------------------------------------|
B|------------------------------------|------------------------------------|
G|------------------------------------|------------------------------------|
D|------------------------------------|------------------------------------|
A|------------------------------------|------------------------------------|
E|--0----0--6--3--5--0--1--3--4b---1--|--0----0--6--3--5--0----0--1--3--1--|

e|------------------------------------|--------------------------------------|
B|------------------------------------|--------------------------------------|
G|------------------------------------|--------------------------------------|
D|------------------------------------|--------------------------------------|
A|------------------------------------|--0--0--0-----------0--0--0-----------|
E|--0----0--6--3--5--0--1--3--4b---1--|--0--0--0--6--3--5--0--0--0--1--3--1--|

e|-------------------------------------|--------------------------------------|
B|-------------------------------------|--------------------------------------|
G|-------------------------------------|--------------------------------------|
D|-------------------------------------|--------------------------------------|
A|--0--0--0----------------------------|--0--0--0-----------0--0--0-----------|
E|--0--0--0--6--3--5--0--1--3--4b---1--|--0--0--0--6--3--5--0--0--0--1--3--1--|

e|-------------------------------------|------------------------------------|
B|-------------------------------------|------------------------------------|
G|-------------------------------------|------------------------------------|
D|-------------------------------------|------------------------------------|
A|--0--0--0----------------------------|--1--1--1--1--1----1--1--1--1--1----|
E|--0--0--0--6--3--5--0--1--3--4b---1--|--1--1--1--1--1----1--1--1--1--1----|

e|---------------------------------|------------------------------------|
B|---------------------------------|------------------------------------|
G|---------------------------------|------------------------------------|
D|---------------------------------|------------------------------------|
A|------1--1----1----1--1--1--1----|--1--1--1--1--1----1--1--1--1--1----|
E|------1--1----1----1--1--1--1----|--1--1--1--1--1----1--1--1--1--1----|

e|-------------------------------|------------------------------------|
B|-------------------------------|------------------------------------|
G|-------------------------------|------------------------------------|
D|-------------------------------|------------------------------------|
A|------1--1----1----1--1--------|--0--0--0--0--0----0--0--0--0--0----|
E|------1--1----1----1--1--------|--0--0--0--0--0----0--0--0--0--0----|

e|---------------------------------|------------------------------------|
B|---------------------------------|------------------------------------|
G|---------------------------------|------------------------------------|
D|---------------------------------|------------------------------------|
A|------0--0----0----0--0--0--0----|--0--0--0--0--0----0--0--0--0--0----|
E|------0--0----0----0--0--0--0----|--0--0--0--0--0----0--0--0--0--0----|

e|---------------------------------|------------------------------------|
B|---------------------------------|------------------------------------|
G|---------------------------------|------------------------------------|
D|---------------------------------|------------------------------------|
A|------0--0----0----0--0--0--0----|--0--0--0--0--0----0--0--0--0--0----|
E|------0--0----0----0--0--0--0----|--0--0--0--0--0----0--0--0--0--0----|

e|---------------------------------|------------------------------------|
B|---------------------------------|------------------------------------|
G|---------------------------------|------------------------------------|
D|---------------------------------|------------------------------------|
A|------0--0----0----0--0--0--0----|--0--0--0--0--0----0--0--0--0--0----|
E|------0--0----0----0--0--0--0----|--0--0--0--0--0----0--0--0--0--0----|

e|---------------------------------|------------------------------------|
B|---------------------------------|------------------------------------|
G|---------------------------------|------------------------------------|
D|---------------------------------|------------------------------------|
A|------0--0----0----0--0--0--0----|--0--0--0--0--0----0--0--0--0--0----|
E|------0--0----0----0--0--0--0----|--0--0--0--0--0----0--0--0--0--0----|

e|---------------------------------|------------------------------------|
B|---------------------------------|------------------------------------|
G|---------------------------------|------------------------------------|
D|---------------------------------|------------------------------------|
A|------0--0----0----0--0--0--0----|--0--0--0--0--0----0--0--0--0--0----|
E|------0--0----0----0--0--0--0----|--0--0--0--0--0----0--0--0--0--0----|

e|---------------------------------|------------------------------------|
B|---------------------------------|------------------------------------|
G|---------------------------------|------------------------------------|
D|---------------------------------|------------------------------------|
A|------0--0----0----0--0--0--0----|--0--0--0--0--0----0--0--0--0--0----|
E|------0--0----0----0--0--0--0----|--0--0--0--0--0----0--0--0--0--0----|

e|---------------------------------|------------------------------------|
B|---------------------------------|------------------------------------|
G|---------------------------------|------------------------------------|
D|---------------------------------|------------------------------------|
A|------0--0----0----0--0--0--0----|--0--0--0--0--0----0--0--0--0--0----|
E|------0--0----0----0--0--0--0----|--0--0--0--0--0----0--0--0--0--0----|

e|------------------------------|------------------------------------|
B|------------------------------|------------------------------------|
G|------------------------------|------------------------------------|
D|------------------------------|------------------------------------|
A|--0---------------------------|------------------------------------|
E|--0------------------0--12/---|--0----0--6--3--5--0----0--1--3--1--|

e|------------------------------------|------------------------------------|
B|------------------------------------|------------------------------------|
G|------------------------------------|------------------------------------|
D|------------------------------------|------------------------------------|
A|------------------------------------|------------------------------------|
E|--0----0--6--3--5--0--1--3--3b---1--|--0----0--6--3--5--0----0--1--3--1--|

e|------------------------------------|--------------------------------------|
B|------------------------------------|--------------------------------------|
G|------------------------------------|--------------------------------------|
D|------------------------------------|--------------------------------------|
A|------------------------------------|--0--0--0-----------0--0--0-----------|
E|--0----0--6--3--5--0--1--3--4b---1--|--0--0--0--6--3--5--0--0--0--1--3--1--|

e|-------------------------------------|--------------------------------------|
B|-------------------------------------|--------------------------------------|
G|-------------------------------------|--------------------------------------|
D|-------------------------------------|--------------------------------------|
A|--0--0--0----------------------------|--0--0--0-----------0--0--0-----------|
E|--0--0--0--6--3--5--0--1--3--4b---1--|--0--0--0--6--3--5--0--0--0--1--3--1--|

e|-------------------------------------|-------------------------------|
B|-------------------------------------|-------------------------------|
G|-------------------------------------|-------------------------------|
D|-------------------------------------|-------------------------------|
A|--0--0--0----------------------------|-------------------------------|
E|--0--0--0--6--3--5--0--1--3--4b---1--|--0--1--3--4b---1--------------|

e|--------------------------------------|--------------------------------------|
B|--------------------------------------|--------------------------------------|
G|--------------------------------------|--------------------------------------|
D|--------------------------------------|--------------------------------------|
A|--5-----------5-----5-----------5-----|--6-----------6-----6-----------6-----|
E|-----3--0--3-----3-----3--0--3-----3--|-----3--0--3-----3-----3--0--3-----3--|

e|--------------------------------------|--------------------------------------|
B|--------------------------------------|--------------------------------------|
G|--------------------------------------|--------------------------------------|
D|--------------------------------------|--------------------------------------|
A|--------------------------------------|--0-----------0-----0-----------0-----|
E|--8--7--5--7--8--7--8--7--5--7--8--7--|-----5--1--5-----5-----5--1--5-----5--|

e|--------------------------------------|--------------------------------------|
B|--------------------------------------|--------------------------------------|
G|--------------------------------------|--------------------------------------|
D|--------------------------------------|--------------------------------------|
A|--5-----------5-----5-----------5-----|--6-----------6-----6-----------6-----|
E|-----3--0--3-----3-----3--0--3-----3--|-----3--0--3-----3-----3--0--3-----3--|

e|--------------------------------------|--------------------------------------|
B|--------------------------------------|--------------------------------------|
G|--------------------------------------|--------------------------------------|
D|--------------------------------------|--------------------------------------|
A|--------------------------------------|--0-----------0-----0-----------0-----|
E|--8--7--5--7--8--7--8--7--5--7--8--7--|-----5--1--5-----5-----5--1--5-----5--|

e|--------------------------------------|--------------------------------------|
B|--------------------------------------|--------------------------------------|
G|--------------------------------------|--------------------------------------|
D|--------------------------------------|--------------------------------------|
A|--5-----------5-----5-----------5-----|--6-----------6-----6-----------6-----|
E|-----3--0--3-----3-----3--0--3-----3--|-----3--0--3-----3-----3--0--3-----3--|

e|--------------------------------------|--------------------------------------|
B|--------------------------------------|--------------------------------------|
G|--------------------------------------|--------------------------------------|
D|--------------------------------------|--------------------------------------|
A|--------------------------------------|--0-----------0-----0-----------0-----|
E|--8--7--5--7--8--7--8--7--5--7--8--7--|-----5--1--5-----5-----5--1--5-----5--|

e|--------------------------------------|--------------------------------------|
B|--------------------------------------|--------------------------------------|
G|--------------------------------------|--------------------------------------|
D|--------------------------------------|--------------------------------------|
A|--5-----------5-----5-----------5-----|--6-----------6-----6-----------6-----|
E|-----3--0--3-----3-----3--0--3-----3--|-----3--0--3-----3-----3--0--3-----3--|

e|--------------------------------------|--------------------------------------|
B|--------------------------------------|--------------------------------------|
G|--------------------------------------|--------------------------------------|
D|--------------------------------------|--------------------------------------|
A|--------------------------------------|--0-----------0-----0-----------0-----|
E|--8--7--5--7--8--7--8--7--5--7--8--7--|-----5--1--5-----5-----5--1--5-----5--|

e|------------------------------------|---------------------------------|
B|------------------------------------|---------------------------------|
G|------------------------------------|---------------------------------|
D|------------------------------------|---------------------------------|
A|--0--0--0--0--0----0--0--0--0--0----|------0--0----0----0--0--0--0----|
E|--0--0--0--0--0----0--0--0--0--0----|------0--0----0----0--0--0--0----|

e|------------------------------------|---------------------------------|
B|------------------------------------|---------------------------------|
G|------------------------------------|---------------------------------|
D|------------------------------------|---------------------------------|
A|--0--0--0--0--0----0--0--0--0--0----|------0--0----0----0--0--0--0----|
E|--0--0--0--0--0----0--0--0--0--0----|------0--0----0----0--0--0--0----|

e|------------------------------------|---------------------------------|
B|------------------------------------|---------------------------------|
G|------------------------------------|---------------------------------|
D|------------------------------------|---------------------------------|
A|--0--0--0--0--0----0--0--0--0--0----|------0--0----0----0--0--0--0----|
E|--0--0--0--0--0----0--0--0--0--0----|------0--0----0----0--0--0--0----|

e|------------------------------------|---------------------------------||
B|------------------------------------|---------------------------------||
G|------------------------------------|---------------------------------||
D|------------------------------------|---------------------------------||
A|--0--0--0--0--0----0--0--0--0--0----|------0--0----0----0--0--0--0----||
E|--0--0--0--0--0----0--0--0--0--0----|------0--0----0----0--0--0--0----||



************************************

| b  Bend
| /  Slide up

************************************
Suggest correction
comments
print report bad tab
19 comments total. Showing first comments.
0 reply
Flametop001 91 Sep 15, 2005 08:00 PM

Not bad, but you should've included that this is in drop D tuning, and the where to palm mute.

0 reply
Flametop001 91 Sep 15, 2005 08:00 PM

-the*

0 reply
Murk 10 Nov 14, 2005 08:22 AM

decent tab.Alot better than twiztid that guy completely inept.

guest
You may want to rate the tab now too:
select rating
Wanna post a correction for this tab? Suggest correction