Oops, an error
Loading. Please wait.
We have an official Laid To Rest tab made by UG professional guitarists. Check out the tab »
×
2,836 views 1 this week
no commentswrite comment
1 2 3 4 5
x 3
add to favorites
×
Save as Personal and add changes to this tab that will be seen only by you. Learn more ›
×
You can save this tab as Personal to edit and correct it or add notes. All changes will be seen only by you. Learn more »
launch autoscroll
font size
0
reset
guitar tuner
backing track
0:00
0:00
edit
Autoscroll
slow
fast
+/-
esc
set tempo
stop
Author
Difficulty
                              Laid To Rest                                   


                                                                     Lamb of God
John Campel



     Q    Q    E  T T T T  Q        Q    Q    Q    Q       W                 
G||------------------------------|----------------------|-------------------|
D||------------------------------|----------------------|-------------------|
A||------------------------------|----------------------|-------------------|
D||---------------0-0-0-0-10\----|--0-------------------|-------------------|


                      |--3--|    |--3--|  |--3--|  |--3--|   
  W                   S  S  S E  E  E  E  E  E  E  E  E  E   
-------------------|----------------------------------------|
-------------------|-------------4--------------------------|
-------------------|----------6-----5--6--3--5-----3--------|
--0----------------|--4h-5p-4-------------------6-----5--6--|


    |--3--|  |-3|     |--3--|  |-3|        |--3-|  |--3--|  |--3--|  |--3--|   
    E  E  E  E  Q     E  E  E  E  Q        Q    E  E  E  E  E  E  E  E  E  E   
|---------------------------------------|-------------------------------------|
|*--------------------------------------|-------------------------------------|
|*--------------------------------------|-------------------------------------|
|---2--2--2--2--3b----2--2--2--2--3b----|-------2--2-----2--2--3--2--5--4--3--|


  |--3--|  |-3|     |--3--|  |-3|        |--3-|  |--3--|  |--3--|  |--3--|   
  E  E  E  E  Q     E  E  E  E  Q        Q    E  E  E  E  E  E  E  E  E  E   
--------------------------------------|-------------------------------------|
--------------------------------------|-------------------------------------|
--------------------------------------|-------------------------------------|
--2--2--2--2--3b----2--2--2--2--3b----|-------2--2-----2--2--3--2--5--4--3--|


  |--3--|  |-3|     |--3--|  |-3|        |--3-|  |--3--|  |--3--|  |--3--|   
  E  E  E  E  Q     E  E  E  E  Q        Q    E  E  E  E  E  E  E  E  E  E   
--------------------------------------|-------------------------------------|
--------------------------------------|-------------------------------------|
--------------------------------------|-------------------------------------|
--2--2--2--2--3b----2--2--2--2--3b----|-------2--2-----2--2--3--2--5--4--3--|


  |--3--|  |-3|     |--3--|  |-3|        |--3-|  |--3--|  |--3--|  |--3--|   
  E  E  E  E  Q     E  E  E  E  Q        Q    E  E  E  E  E  E  E  E  E  E   
--------------------------------------|-------------------------------------|
--------------------------------------|-------------------------------------|
--------------------------------------|-------------------------------------|
--2--2--2--2--3b----2--2--2--2--3b----|-------2--2-----2--2--3--2--3--2--1--|


    |--3--|  |--3--|  |--3--|  |--3--|     |--3-|  |--3--|  |--3--|  |--3--|   
    E  E  E  E  E  E  E  E  E  E  E  E     Q    E  E  E  E  E  E  E  E  E  E   
|---------------------------------------|-------------------------------------|
|*--------------------------------------|-------------------------------------|
|*--------------------------------------|-------------------------------------|
|---0--0--0--0--0-----0--0--0--0--0-----|-------0--0-----0-----0--0--0--0-----|


  |--3--|  |--3--|  |--3--|  |--3--|     |--3-|  |--3--|  |--3--|  |--3--|     
  E  E  E  E  E  E  E  E  E  E  E  E     Q    E  E  E  E  E  E  E  E  E  E     
--------------------------------------|--------------------------------------||
--------------------------------------|-------------------------------------*||
--------------------------------------|-------------------------------------*||
--0--0--0--0--0-----0--0--0--0--0-----|-------0--0-----0-----0--0--0--0------||


  |--3--|  |-3|     |--3--|  |-3|        |--3-|  |--3--|  |--3--|  |--3--|   
  E  E  E  E  Q     E  E  E  E  Q        Q    E  E  E  E  E  E  E  E  E  E   
--------------------------------------|-------------------------------------|
--------------------------------------|-------------------------------------|
--------------------------------------|-------------------------------------|
--2--2--2--2--3b----2--2--2--2--3b----|-------2--2-----2--2--3--2--5--4--3--|


  |--3--|  |-3|     |--3--|  |-3|        |--3-|  |--3--|  |--3--|  |--3--|   
  E  E  E  E  Q     E  E  E  E  Q        Q    E  E  E  E  E  E  E  E  E  E   
--------------------------------------|-------------------------------------|
--------------------------------------|-------------------------------------|
--------------------------------------|-------------------------------------|
--2--2--2--2--3b----2--2--2--2--3b----|-------2--2-----2--2--3--2--3--2--1--|


  |--3--|  |--3--|  |--3--|  |--3--|     |--3--|  |--3--|  |--3--|   |--3--|   
  E  E  E  E  E  E  E  E  E  E  E  E     E  E  E  E  E  E  E  E  E   E  E  E   
--------------------------------------|---------------------------------------|
-----------------------------3--------|---------------------------------------|
-----------6--5--3--------------5--6--|---------------------------------------|
--0--0--0-----------0--0--0-----------|--0--0--0--8--4--5--7--8--7--10--7--8--|


  |--3--|  |--3--|    |--3--|  |--3--|   
  E  E  E  S  S  S E  E  E  E  E  E  E   
----------------------------------------|
----------------------------------------|
-------------------6--------------------|
--0--0--0--4h-5p-4----0--0--0--8--7--5--|


  |--3--|    |--3--|  |--3--|  |--3--|     |--3--|  |--3--|  |--3--|  |--3--|   
  S  S  S E  E  E  E  E  E  E  E  E  E     E  E  E  E  E  E  E  E  E  E  E  E   
----------------------------------------|--------------------------------------|
-------------4--------------------------|-----------------------------3--------|
----------6-----5--6--3--5-----3--------|-----------6--5--3--------------5--6--|
--4h-5p-4-------------------6-----5--6--|--0--0--0-----------0--0--0-----------|


  |--3--|  |--3--|  |--3--|   |--3--|   
  E  E  E  E  E  E  E  E  E   E  E  E   
---------------------------------------|
---------------------------------------|
---------------------------------------|
--0--0--0--8--4--5--7--8--7--10--7--8--|


  |--3--|  |--3--|    |--3--|  |--3--|   
  E  E  E  S  S  S E  E  E  E  E  E  E   
----------------------------------------|
----------------------------------------|
-------------------6--------------------|
--0--0--0--4h-5p-4----0--0--0--8--7--5--|


  |--3--|    |--3--|  |--3--|  |--3--|     |--3--|  |--3--|  |--3--|  |--3--|   
  S  S  S E  E  E  E  E  E  E  E  E  E     E  E  E  E  E  E  E  E  E  E  E  E   
----------------------------------------|--------------------------------------|
-------------4--------------------------|-----------------------------3--------|
----------6-----5--6--3--5-----3--------|-----------6--5--3--------------5--6--|
--4h-5p-4-------------------6-----5--6--|--0--0--0-----------0--0--0-----------|


  |--3--|  |--3--|  |--3--|   |--3--|   
  E  E  E  E  E  E  E  E  E   E  E  E   
---------------------------------------|
---------------------------------------|
---------------------------------------|
--0--0--0--8--4--5--7--8--7--10--7--8--|


  |--3--|  |--3--|    |--3--|  |--3--|   
  E  E  E  S  S  S E  E  E  E  E  E  E   
----------------------------------------|
----------------------------------------|
-------------------6--------------------|
--0--0--0--4h-5p-4----0--0--0--8--7--5--|


  |--3--|    |--3--|  |--3--|  |--3--|     |--3--|  |--3--|  |--3--|  |--3--|   
  S  S  S E  E  E  E  E  E  E  E  E  E     E  E  E  E  E  E  E  E  E  E  E  E   
----------------------------------------|--------------------------------------|
-------------4--------------------------|-----------------------------3--------|
----------6-----5--6--3--5-----3--------|-----------6--5--3--------------5--6--|
--4h-5p-4-------------------6-----5--6--|--0--0--0-----------0--0--0-----------|


  |--3--|  |--3--|  |--3--|   |--3--|   
  E  E  E  E  E  E  E  E  E   E  E  E   
---------------------------------------|
---------------------------------------|
---------------------------------------|
--0--0--0--8--4--5--7--8--7--10--7--8--|


  |--3--|  |--3--|    |--3--|  |--3--|   
  E  E  E  S  S  S E  E  E  E  E  E  E   
----------------------------------------|
----------------------------------------|
-------------------6--------------------|
--0--0--0--4h-5p-4----0--0--0--8--7--5--|


  |--3--|    |--3--|  |--3--|  |--3--|     |--3-|  |--3--|  |--3-|  |--3--|   
  S  S  S E  E  E  E  E  E  E  E  E  E     Q    E  E  E  E  Q    E  E  E  E   
----------------------------------------|------------------------------------|
-------------4--------------------------|------------------------------------|
----------6-----5--6--3--5-----3--------|------------------------------------|
--4h-5p-4-------------------6-----5--6--|--0----0--6--3--5--0----0--1--3--1--|


  |--3-|  |--3--|  |--3--|  |---3---|     |--3-|  |--3--|  |--3-|  |--3--|   
  Q    E  E  E  E  E  E  E  E    E  E     Q    E  E  E  E  Q    E  E  E  E   
---------------------------------------|------------------------------------|
---------------------------------------|------------------------------------|
---------------------------------------|------------------------------------|
--0----0--6--3--5--0--1--3--5br--L--3--|--0----0--6--3--5--0----0--1--3--1--|


  |--3-|  |--3--|  |--3--|  |---3---|     |--3--|  |--3--|  |--3--|  |--3--|   
  Q    E  E  E  E  E  E  E  E    E  E     E  E  E  E  E  E  E  E  E  E  E  E   
---------------------------------------|--------------------------------------|
---------------------------------------|--------------------------------------|
---------------------------------------|--------------------------------------|
--0----0--6--3--5--0--1--3--5br--L--3--|--0--0--0--6--3--5--0--0--0--1--3--1--|


  |--3--|  |--3--|  |--3--|  |---3---|     |--3--|  |--3--|  |--3--|  |--3--|   
  E  E  E  E  E  E  E  E  E  E    E  E     E  E  E  E  E  E  E  E  E  E  E  E   
----------------------------------------|--------------------------------------|
----------------------------------------|--------------------------------------|
----------------------------------------|--------------------------------------|
--0--0--0--6--3--5--0--1--3--5br--L--3--|--0--0--0--6--3--5--0--0--0--1--3--1--|


  |--3--|  |--3--|  |--3--|  |---3---|     |--3--|  |-3|     |--3--|  |-3|      
  E  E  E  E  E  E  E  E  E  E    E  E     E  E  E  E  Q     E  E  E  E  Q      
----------------------------------------|--------------------------------------|
----------------------------------------|--------------------------------------|
----------------------------------------|--------------------------------------|
--0--0--0--6--3--5--0--1--3--5br--L--3--|--2--2--2--2--3b----2--2--2--2--3b----|


  |--3-|  |--3--|  |--3--|  |--3--|     |--3--|  |-3|     |--3--|  |-3|      
  Q    E  E  E  E  E  E  E  E  E  E     E  E  E  E  Q     E  E  E  E  Q      
-------------------------------------|--------------------------------------|
-------------------------------------|--------------------------------------|
-------------------------------------|--------------------------------------|
-------2--2-----2--2--3--2--5--4--3--|--2--2--2--2--3b----2--2--2--2--3b----|


  |--3-|  |--3--|  |--3--|  |--3--|     |--3--|  |--3--|  |--3--|  |--3--|   
  Q    E  E  E  E  E  E  E  E  E  E     E  E  E  E  E  E  E  E  E  E  E  E   
-------------------------------------|--------------------------------------|
-------------------------------------|-----------------------------3--------|
-------------------------------------|-----------6--5--3--------------5--6--|
-------2--2-----2--2--3--2--3--2--1--|--0--0--0-----------0--0--0-----------|


  |--3--|  |--3--|  |--3--|   |--3--|   
  E  E  E  E  E  E  E  E  E   E  E  E   
---------------------------------------|
---------------------------------------|
---------------------------------------|
--0--0--0--8--4--5--7--8--7--10--7--8--|


  |--3--|  |--3--|    |--3--|  |--3--|   
  E  E  E  S  S  S E  E  E  E  E  E  E   
----------------------------------------|
----------------------------------------|
-------------------6--------------------|
--0--0--0--4h-5p-4----0--0--0--8--7--5--|


  |--3--|    |--3--|  |--3--|  |--3--|     |--3--|  |--3--|  |--3--|  |--3--|   
  S  S  S E  E  E  E  E  E  E  E  E  E     E  E  E  E  E  E  E  E  E  E  E  E   
----------------------------------------|--------------------------------------|
-------------4--------------------------|-----------------------------3--------|
----------6-----5--6--3--5-----3--------|-----------6--5--3--------------5--6--|
--4h-5p-4-------------------6-----5--6--|--0--0--0-----------0--0--0-----------|


  |--3--|  |--3--|  |--3--|   |--3--|   
  E  E  E  E  E  E  E  E  E   E  E  E   
---------------------------------------|
---------------------------------------|
---------------------------------------|
--0--0--0--8--4--5--7--8--7--10--7--8--|


  |--3--|  |--3--|    |--3--|  |--3--|   
  E  E  E  S  S  S E  E  E  E  E  E  E   
----------------------------------------|
----------------------------------------|
-------------------6--------------------|
--0--0--0--4h-5p-4----0--0--0--8--7--5--|


  |--3--|    |--3--|  |--3--|  |--3--|     |--3--|  |--3--|  |--3--|  |--3--|   
  S  S  S E  E  E  E  E  E  E  E  E  E     E  E  E  E  E  E  E  E  E  E  E  E   
----------------------------------------|--------------------------------------|
-------------4--------------------------|-----------------------------3--------|
----------6-----5--6--3--5-----3--------|-----------6--5--3--------------5--6--|
--4h-5p-4-------------------6-----5--6--|--0--0--0-----------0--0--0-----------|


  |--3--|  |--3--|  |--3--|   |--3--|   
  E  E  E  E  E  E  E  E  E   E  E  E   
---------------------------------------|
---------------------------------------|
---------------------------------------|
--0--0--0--8--4--5--7--8--7--10--7--8--|


  |--3--|  |--3--|    |--3--|  |--3--|   
  E  E  E  S  S  S E  E  E  E  E  E  E   
----------------------------------------|
----------------------------------------|
-------------------6--------------------|
--0--0--0--4h-5p-4----0--0--0--8--7--5--|


  |--3--|    |--3--|  |--3--|  |--3--|     |--3--|  |--3--|  |--3--|  |--3--|   
  S  S  S E  E  E  E  E  E  E  E  E  E     E  E  E  E  E  E  E  E  E  E  E  E   
----------------------------------------|--------------------------------------|
-------------4--------------------------|-----------------------------3--------|
----------6-----5--6--3--5-----3--------|-----------6--5--3--------------5--6--|
--4h-5p-4-------------------6-----5--6--|--0--0--0-----------0--0--0-----------|


  |--3--|  |--3--|  |--3--|   |--3--|   
  E  E  E  E  E  E  E  E  E   E  E  E   
---------------------------------------|
---------------------------------------|
---------------------------------------|
--0--0--0--8--4--5--7--8--7--10--7--8--|


  |--3--|  |--3--|    |--3--|  |--3--|   
  E  E  E  S  S  S E  E  E  E  E  E  E   
----------------------------------------|
----------------------------------------|
-------------------6--------------------|
--0--0--0--4h-5p-4----0--0--0--8--7--5--|


  |--3--|    |--3--|  |--3--|  |--3--|     |--3-|  |--3--|  |--3-|  |--3--|   
  S  S  S E  E  E  E  E  E  E  E  E  E     Q    E  E  E  E  Q    E  E  E  E   
----------------------------------------|------------------------------------|
-------------4--------------------------|------------------------------------|
----------6-----5--6--3--5-----3--------|------------------------------------|
--4h-5p-4-------------------6-----5--6--|--0----0--6--3--5--0----0--1--3--1--|


  |--3-|  |--3--|  |--3--|  |---3---|     |--3-|  |--3--|  |--3-|  |--3--|   
  Q    E  E  E  E  E  E  E  E    E  E     Q    E  E  E  E  Q    E  E  E  E   
---------------------------------------|------------------------------------|
---------------------------------------|------------------------------------|
---------------------------------------|------------------------------------|
--0----0--6--3--5--0--1--3--5br--L--3--|--0----0--6--3--5--0----0--1--3--1--|


  |--3-|  |--3--|  |--3--|  |---3---|     |--3--|  |--3--|  |--3--|  |--3--|   
  Q    E  E  E  E  E  E  E  E    E  E     E  E  E  E  E  E  E  E  E  E  E  E   
---------------------------------------|--------------------------------------|
---------------------------------------|--------------------------------------|
---------------------------------------|--------------------------------------|
--0----0--6--3--5--0--1--3--5br--L--3--|--0--0--0--6--3--5--0--0--0--1--3--1--|


  |--3--|  |--3--|  |--3--|  |---3---|     |--3--|  |--3--|  |--3--|  |--3--|   
  E  E  E  E  E  E  E  E  E  E    E  E     E  E  E  E  E  E  E  E  E  E  E  E   
----------------------------------------|--------------------------------------|
----------------------------------------|--------------------------------------|
----------------------------------------|--------------------------------------|
--0--0--0--6--3--5--0--1--3--5br--L--3--|--0--0--0--6--3--5--0--0--0--1--3--1--|


  |--3--|  |--3--|  |--3--|  |---3---|     |--3--|  |--3--|  |--3--|  |--3--|   
  E  E  E  E  E  E  E  E  E  E    E  E     E  E  E  E  E  E  E  E  E  E  E  E   
----------------------------------------|--------------------------------------|
----------------------------------------|--------------------------------------|
----------------------------------------|--------------------------------------|
--0--0--0--6--3--5--0--1--3--5br--L--3--|--1--1--1--1--1-----1--1--1--1--1-----|


  |--3-|  |--3--|  |--3--|  |--3--|     |--3--|  |--3--|  |--3--|  |--3--|   
  Q    E  E  E  E  E  E  E  E  E  E     E  E  E  E  E  E  E  E  E  E  E  E   
-------------------------------------|--------------------------------------|
-------------------------------------|--------------------------------------|
-------------------------------------|--------------------------------------|
-------1--1-----1-----1--1--1--1-----|--1--1--1--1--1-----1--1--1--1--1-----|


  |--3-|  |--3--|  |--3--|                 |--3--|  |--3--|  |--3--|  |--3--|   
  Q    E  E  E  E  E  E  E  Q    Q         E  E  E  E  E  E  E  E  E  E  E  E   
--------------------------------------||---------------------------------------|
--------------------------------------||*--------------------------------------|
--------------------------------------||*--------------------------------------|
-------1--1-----1-----1--1------------||---0--0--0--0--0-----0--0--0--0--0-----|


  |--3-|  |--3--|  |--3--|  |--3--|     |--3--|  |--3--|  |--3--|  |--3--|   
  Q    E  E  E  E  E  E  E  E  E  E     E  E  E  E  E  E  E  E  E  E  E  E   
-------------------------------------|--------------------------------------|
-------------------------------------|--------------------------------------|
-------------------------------------|--------------------------------------|
-------0--0-----0-----0--0--0--0-----|--0--0--0--0--0-----0--0--0--0--0-----|


  |--3-|  |--3--|  |--3--|  |--3--|       |--3--|  |--3--|  |--3--|  |--3--|   
  Q    E  E  E  E  E  E  E  E  E  E       E  E  E  E  E  E  E  E  E  E  E  E   
--------------------------------------||--------------------------------------|
-------------------------------------*||--------------------------------------|
-------------------------------------*||--------------------------------------|
-------0--0-----0-----0--0--0--0------||--0--0--0--0--0-----0--0--0--0--0-----|


  |--3-|  |--3--|  |--3--|  |--3--|     |--3--|  |--3--|  |--3--|  |--3--|   
  Q    E  E  E  E  E  E  E  E  E  E     E  E  E  E  E  E  E  E  E  E  E  E   
-------------------------------------|--------------------------------------|
-------------------------------------|--------------------------------------|
-------------------------------------|--------------------------------------|
-------0--0-----0-----0--0--0--0-----|--0--0--0--0--0-----0--0--0--0--0-----|


  |--3-|  |--3--|  |--3--|  |--3--|     |--3--|  |--3--|  |--3--|  |--3--|   
  Q    E  E  E  E  E  E  E  E  E  E     E  E  E  E  E  E  E  E  E  E  E  E   
-------------------------------------|--------------------------------------|
-------------------------------------|--------------------------------------|
-------------------------------------|--------------------------------------|
-------0--0-----0-----0--0--0--0-----|--0--0--0--0--0-----0--0--0--0--0-----|


  |--3-|  |--3--|  |--3--|  |--3--|     |--3--|  |--3--|  |--3--|  |--3--|   
  Q    E  E  E  E  E  E  E  E  E  E     E  E  E  E  E  E  E  E  E  E  E  E   
-------------------------------------|--------------------------------------|
-------------------------------------|--------------------------------------|
-------------------------------------|--------------------------------------|
-------0--0-----0-----0--0--0--0-----|--0--0--0--0--0-----0--0--0--0--0-----|


                         |--3-|  |--3--|  |--3-|  |--3--|   
  Q    Q    Q    Q       Q    E  E  E  E  Q    E  E  E  E   
----------------------|------------------------------------|
----------------------|------------------------------------|
----------------------|------------------------------------|
--0-------------------|--0----0--6--3--5--0----0--1--3--1--|


  |--3-|  |--3--|  |--3--|  |---3---|     |--3-|  |--3--|  |--3-|  |--3--|   
  Q    E  E  E  E  E  E  E  E    E  E     Q    E  E  E  E  Q    E  E  E  E   
---------------------------------------|------------------------------------|
---------------------------------------|------------------------------------|
---------------------------------------|------------------------------------|
--0----0--6--3--5--0--1--3--5br--L--3--|--0----0--6--3--5--0----0--1--3--1--|


  |--3-|  |--3--|  |--3--|  |---3---|     |--3--|  |--3--|  |--3--|  |--3--|   
  Q    E  E  E  E  E  E  E  E    E  E     E  E  E  E  E  E  E  E  E  E  E  E   
---------------------------------------|--------------------------------------|
---------------------------------------|--------------------------------------|
---------------------------------------|--------------------------------------|
--0----0--6--3--5--0--1--3--5br--L--3--|--0--0--0--6--3--5--0--0--0--1--3--1--|


  |--3--|  |--3--|  |--3--|  |---3---|     |--3--|  |--3--|  |--3--|  |--3--|   
  E  E  E  E  E  E  E  E  E  E    E  E     E  E  E  E  E  E  E  E  E  E  E  E   
----------------------------------------|--------------------------------------|
----------------------------------------|--------------------------------------|
----------------------------------------|--------------------------------------|
--0--0--0--6--3--5--0--1--3--5br--L--3--|--0--0--0--6--3--5--0--0--0--1--3--1--|


  |--3--|  |--3--|  |--3--|  |---3---|                          
  E  E  E  E  E  E  E  E  E  E    E  E     Q    Q    Q    Q     
----------------------------------------|----------------------|
----------------------------------------|----------------------|
----------------------------------------|----------------------|
--0--0--0--6--3--5--0--1--3--5br--L--3--|--0---------0---------|


  |--3--|  |--3--|  |--3--|  |--3--|     |--3--|  |--3--|  |--3--|  |--3--|   
  E  E  E  E  E  E  E  E  E  E  E  E     E  E  E  E  E  E  E  E  E  E  E  E   
--------------------------------------|--------------------------------------|
--------------------------------------|--------------------------------------|
--------------------------------------|--------------------------------------|
--0--0--0--0--0--0--0--0--0--0--0--0--|--1--1--1--1--1--1--1--1--1--1--1--1--|


  |--3--|  |--3--|  |--3--|  |--3--|     |--3--|  |--3--|  |--3--|  |--3--|   
  E  E  E  E  E  E  E  E  E  E  E  E     E  E  E  E  E  E  E  E  E  E  E  E   
--------------------------------------|--------------------------------------|
--------------------------------------|--------------------------------------|
--1--0-----0--1--0--1--0-----0--1-----|--0-----------0-----0-----------0-----|
--------5-----------------5--------0--|-----5--1--0-----1-----0--1--0-----1--|


  |--3--|  |--3--|  |--3--|  |--3--|     |--3--|  |--3--|  |--3--|  |--3--|   
  E  E  E  E  E  E  E  E  E  E  E  E     E  E  E  E  E  E  E  E  E  E  E  E   
--------------------------------------|--------------------------------------|
--------------------------------------|--------------------------------------|
--------------------------------------|--------------------------------------|
--0--0--0--0--0--0--0--0--0--0--0--0--|--1--1--1--1--1--1--1--1--1--1--1--1--|


  |--3--|  |--3--|  |--3--|  |--3--|     |--3--|  |--3--|  |--3--|  |--3--|   
  E  E  E  E  E  E  E  E  E  E  E  E     E  E  E  E  E  E  E  E  E  E  E  E   
--------------------------------------|--------------------------------------|
--------------------------------------|--------------------------------------|
--1--0-----0--1--0--1--0-----0--1-----|--0-----------0-----0-----------0-----|
--------5-----------------5--------0--|-----5--1--0-----1-----0--1--0-----1--|


  |--3--|  |--3--|  |--3--|  |--3--|     |--3--|  |--3--|  |--3--|  |--3--|   
  E  E  E  E  E  E  E  E  E  E  E  E     E  E  E  E  E  E  E  E  E  E  E  E   
--------------------------------------|--------------------------------------|
--------------------------------------|--------------------------------------|
--------------------------------------|--------------------------------------|
--0--0--0--0--0--0--0--0--0--0--0--0--|--1--1--1--1--1--1--1--1--1--1--1--1--|


  |--3--|  |--3--|  |--3--|  |--3--|     |--3--|  |--3--|  |--3--|  |--3--|   
  E  E  E  E  E  E  E  E  E  E  E  E     E  E  E  E  E  E  E  E  E  E  E  E   
--------------------------------------|--------------------------------------|
--------------------------------------|--------------------------------------|
--1--0-----0--1--0--1--0-----0--1-----|--0-----------0-----0-----------0-----|
--------5-----------------5--------0--|-----5--1--0-----1-----0--1--0-----1--|


  |--3--|  |--3--|  |--3--|  |--3--|     |--3--|  |--3--|  |--3--|  |--3--|   
  E  E  E  E  E  E  E  E  E  E  E  E     E  E  E  E  E  E  E  E  E  E  E  E   
--------------------------------------|--------------------------------------|
--------------------------------------|--------------------------------------|
--------------------------------------|--------------------------------------|
--0--0--0--0--0--0--0--0--0--0--0--0--|--1--1--1--1--1--1--1--1--1--1--1--1--|


  |--3--|  |--3--|  |--3--|  |--3--|     |--3--|  |--3--|  |--3--|  |--3--|   
  E  E  E  E  E  E  E  E  E  E  E  E     E  E  E  E  E  E  E  E  E  E  E  E   
--------------------------------------|--------------------------------------|
--------------------------------------|--------------------------------------|
--1--0-----0--1--0--1--0-----0--1-----|--0-----------0-----0-----------0-----|
--------5-----------------5--------0--|-----5--1--0-----1-----0--1--0-----1--|


    |--3--|  |--3--|  |--3--|  |--3--|     |--3-|  |--3--|  |--3--|  |--3--|   
    E  E  E  E  E  E  E  E  E  E  E  E     Q    E  E  E  E  E  E  E  E  E  E   
|---------------------------------------|-------------------------------------|
|*--------------------------------------|-------------------------------------|
|*--------------------------------------|-------------------------------------|
|---0--0--0--0--0-----0--0--0--0--0-----|-------0--0-----0-----0--0--0--0-----|


  |--3--|  |--3--|  |--3--|  |--3--|     |--3-|  |--3--|  |--3--|  |--3--|     
  E  E  E  E  E  E  E  E  E  E  E  E     Q    E  E  E  E  E  E  E  E  E  E     
--------------------------------------|--------------------------------------||
--------------------------------------|-------------------------------------*||
--------------------------------------|-------------------------------------*||
--0--0--0--0--0-----0--0--0--0--0-----|-------0--0-----0-----0--0--0--0------||


  |--3--|  |--3--|  |--3--|  |--3--|     |--3-|  |--3--|  |--3--|  |--3--|   
  E  E  E  E  E  E  E  E  E  E  E  E     Q    E  E  E  E  E  E  E  E  E  E   
--------------------------------------|-------------------------------------|
--------------------------------------|-------------------------------------|
--------------------------------------|-------------------------------------|
--0--0--0--0--0-----0--0--0--0--0-----|-------0--0-----0-----0--0--0--0-----|


  W                   W                                      
-------------------|-------------------|-------------------||
-------------------|-------------------|-------------------||
-------------------|-------------------|-------------------||
-------------------|-------------------|-------------------||




Duration Legend
---------------
W - whole
H - half
Q - quarter
E - 8th
S - 16th
T - 32nd
X - 64th
. - note dotted
|-n-|  - n-tuplets


Tablature Legend
----------------
L - tied note
x - dead note
g - grace note
(n) - ghost note
> - accentuded note
NH - natural harmonic
AH - artificial harmonic
TH - tapped harmonic
SH - semi harmonic
PH - pitch harmonic
h - hammer on
p - pull off
b - bend
br - bendRelease
pb - preBend
pbr - preBendRelease
brb - bendReleaseBend
\n/ - tremolo bar dip
\n - tremolo bar dive
-/n - tremolo bar Release up
/n\ - tremolo bar inverted dip
/n - tremolo bar return
-\n - tremolo bar Release down
S - shift slide
s - legato slide
/ -  slide into from below or out of upwards
\ -  slide into from above or out of downwards
~ - vibrato
W - wide vibrato
tr - trill
TP - tremolo picking
T - tapping
S - slap
P - pop
< - fade in
^ - brush up
v - brush down

            
            
Suggest correction
Creating personal tab
Creating personal tab
You can edit any tab online and save it as your Personal.

You can edit, replace or remove any tab part or add personal notes – all changes will be seen only by you.

Personal tabs can be accessed anytime from any device, even offline.
Learn more »
Give kudos to tab author, rate the tab!
1 2 3 4 5
comments
print report bad tab
guest
You may want to rate the tab now too:
select rating
Wanna post a correction for this tab? Suggest correction