Oops, an error
Loading. Please wait.
We have an official Laid To Rest tab made by UG professional guitarists. Check out the tab »
×

Laid To Rest tab

2,787 views 9 this week
no commentswrite comment
1 2 3 4 5
x 4
add to favorites
×
Save as Personal and add changes to this tab that will be seen only by you. Learn more ›
×
You can save this tab as Personal to edit and correct it or add notes. All changes will be seen only by you. Learn more »
launch autoscroll
font size
0
reset
how to read this tab
guitar tuner
backing track
0:00
0:00
edit
Autoscroll
slow
fast
+/-
esc
set tempo
stop
About this tab version
This is a complete version with useful links included (perfomances, lesson and playthrough). Was this info helpful? Yes No
|--------------------------------------------------------------------------------------------------------|
|                                       LAMB OF GOD - LAID TO REST                                       |
|                                     Album: Ashes of the Wake (2004)                                    |
|--------------------------------------------------------------------------------------------------------|

                   If you have questions or corrections feel free to send me a message:
                                http://profile.ultimate-guitar.com/godspeedy/
                                    https://www.facebook.com/Godspeedy14
                     
                Also, check out my Youtube channel: http://www.youtube.com/user/Godspeedy14

                                         Tuning: 6 string DADGBE 

                                 I used following videos to make this tab:

                               https://www.youtube.com/watch?v=y6pkJ-p6kGc
                               https://www.youtube.com/watch?v=PFA94pSW2WY
                                                    
*********************************************GUITAR NOTATIONS*********************************************
*                                                                                                        *
*                                      | *   palm mute           |                                       *
*                                      | s   slide               |                                       *
*                                      | s\  slide downwards     |                                       *
*                                      | /s  slide in from below |                                       *
*                                      | \s  slide in from above |                                       *
*                                      | h   hammer-on           |                                       *
*                                      | p   pull-off            |                                       *
*                                      | +   pinch harmonics     |                                       *
*                                      | x   Mute note           |                                       *
*                                      | b   bend                |                                       *
*                                      | r   release             |                                       *
*                                      | br  bend release        |                                       *
*                                      | ..  let ring            |                                       *
*                                      | П   downstroke          |                                       *
*                                      | V   upstroke            |                                       *
*                                                                                                        *
**********************************************************************************************************

|--------------------------------------------------------------------------------------------------------|
|                                          INTRO (00:00-00:42)                                           |
|--------------------------------------------------------------------------------------------------------|

I. Guitar 1 (w/ dist)

                П     П                        П       П     V  П  V  П  V  П  V  П  V  П
E|------------------|----------------|-------|-------|-------------------------------------|
B|------------------|----------------|-------|-------|-------------------------------------|
G|------------------|----------------|-------|-------|-------------------------------------|
D|------------/s8s\-|----------------|-------|-0-----|-4h5p4----4--------------------------|
A|------------/s8s\-|-0--------------|-------|-0-----|-------6-----5--6--3--5-----3--------|
D|------------/s8s\-|-0--------------|-------|-0-----|-------------------------6-----5--6--|
                      *                                         *  *  *  *  *  *  *  *  *

   Guitar 2 (w/ dist)

                П     П  V  П  V  П  V  П  V  П  V  П  V   П  V  П  V  П  V  П  V  П  V   П  V
E|------------------|------------------------------------|-------------------------------------|
B|------------------|------------------------------------|-------------------------------------|
G|------------------|------------------------------------|-------------------------------------|
D|------------/s8s\-|------------------------------------|-------------------------------------|
A|------------/s8s\-|----------6--5--3-----------8--5--6-|-------------------------------------|
D|------------/s8s\-|-0--0--0-----------0--0--0----------|-0--0--0--8--5--4-s7--8--7--10--7--8-|
                      *  *  *           *  *  *            *  *  *               

   П  V  П  V        П  V  П  V  П  V   П     V  П  V  П  V  П  V  П  V  П
E|------------------------------------|-------------------------------------|
B|------------------------------------|-------------------------------------|
G|------------------------------------|-------------------------------------|
D|----------4h5p4-------------8--7--5-|-4h5p4----4--------------------------|
A|----------------5-------------------|-------6-----5--6--3--5-----3--------|
D|-0--0--0-----------0--0--0----------|-------------------------6-----5--6--|
   *  *  *           *  *  *                

II. Guitars 1 and 2 (w/ dist)

   П  V  П  V  П   П  V  П  V  П        П  V      П  V  П  V  П  V  П
E|--------------------------------|------------------------------------|
B|--------------------------------|------------------------------------|
G|--------------------------------|------------------------------------| x3
D|--------------------------------|------------------------------------|
A|--------------------------------|------------------------------------|
D|-2--2--2--2--3b--2--2--2--2--3b-|-----2--2------2--2--3--2--5--4--3--|
   *  *  *  *  +   *  *  *  *  +        *  *      *  * 

   П  V  П  V  П   П  V  П  V  П        П  V      П  V  П  V  П  V  П
E|--------------------------------|------------------------------------|
B|--------------------------------|------------------------------------|
G|--------------------------------|------------------------------------|
D|--------------------------------|------------------------------------|
A|--------------------------------|------------------------------------|
D|-2--2--2--2--3b--2--2--2--2--3b-|-----2--2------2--2--3--2--3--2--1--|
   *  *  *  *  +   *  *  *  *  +        *  *      *  *  

III. Guitars 1 and 2 (w/ dist)

   П  V  П  V  П      П  V  П  V  П           П  V      П      П  V  П  V
E|--------------------------------------|-------------------------------------|
B|--------------------------------------|-------------------------------------|
G|--------------------------------------|-------------------------------------| x4
D|--------------------------------------|-------------------------------------|
A|--------------------------------------|-------------------------------------|
D|-0--0--0--0--0------0--0--0--0--0-----|-----0--0------0------0--0--0--0-----|
   *  *  *  *  *      *  *  *  *  *           *  *      *      *  *  *  *

Guitar 3 (w/ dist)

             П
E|---------------|
B|---------------|
G|---------------|
D|-----------12--|
A|---------------|
D|---------------|

   V       П   V       П   V   П   V   П   V   П
E|------------------------------------------------|
B|-------------------------13----------11---------|
G|-15-s14------12-h14----------15----------14-----| x7
D|---------12----------12----------12----------12-|
A|------------------------------------------------|
D|------------------------------------------------|

   V       П   V       П   V   П   V   П   V
E|------------------------------------------------|
B|-------------------------13----------11---------|
G|-15-s14------12-h14----------15----------14-----|
D|---------12----------12----------12-------------|
A|------------------------------------------------|
D|------------------------------------------------|

IV. Guitars 1 and 2 (w/ dist)

   П  V  П  V  П   П  V  П  V  П        П  V      П  V  П  V  П  V  П
E|--------------------------------|------------------------------------|
B|--------------------------------|------------------------------------|
G|--------------------------------|------------------------------------|
D|--------------------------------|------------------------------------|
A|--------------------------------|------------------------------------|
D|-2--2--2--2--3b--2--2--2--2--3b-|-----2--2------2--2--3--2--5--4--3--|
   *  *  *  *  +   *  *  *  *  +        *  *      *  *  *

   П  V  П  V  П   П  V  П  V  П        П  V      П  V  П  V  П  V  П
E|--------------------------------|------------------------------------|
B|--------------------------------|------------------------------------|
G|--------------------------------|------------------------------------|
D|--------------------------------|------------------------------------|
A|--------------------------------|------------------------------------|
D|-2--2--2--2--3b--2--2--2--2--3b-|-----2--2------2--2--3--2--3--2--1--|
   *  *  *  *  +   *  *  *  *  +        *  *      *  *  

|--------------------------------------------------------------------------------------------------------|
|                                          VERSE (00:42-00:56)                                           |
|--------------------------------------------------------------------------------------------------------|

Guitars 1 and 2 (w/ dist)

   П  V  П  V  П  V  П  V  П  V  П  V   П  V  П  V  П  V  П  V  П  V   П  V
E|------------------------------------|-------------------------------------|
B|------------------------------------|-------------------------------------|
G|------------------------------------|-------------------------------------|
D|------------------------------------|-------------------------------------|
A|----------6--5--3-----------8--5--6-|-------------------------------------|\
D|-0--0--0-----------0--0--0----------|-0--0--0--8--5--4-s7--8--7--10--7--8-| \
   *  *  *           *  *  *            *  *  *                                \
                                                                                x2
   П  V  П  V        П  V  П  V  П  V   П     V  П  V  П  V  П  V  П  V  П     /
E|------------------------------------|-------------------------------------| /
B|------------------------------------|-------------------------------------|/
G|------------------------------------|-------------------------------------|
D|----------4h5p4-------------8--7--5-|-4h5p4----4--------------------------|
A|----------------6-------------------|-------6-----5--6--3--5-----3--------|
D|-0--0--0-----------0--0--0----------|-------------------------6-----5--6--|
   *  *  *           *  *  * 
                                     
|--------------------------------------------------------------------------------------------------------|
|                                        PRE-CHORUS (00:56-01:10)                                        |
|--------------------------------------------------------------------------------------------------------|

Guitar 1 (w/ dist)

   П  V  П  V  П  V  П  V  П  V  П  V   П  V  П  V  П  V  П  V  П  V   П  V
E|------------------------------------|-------------------------------------|
B|------------------------------------|-------------------------------------|
G|------------------------------------|-------------------------------------|
D|------------------------------------|-------------------------------------|
A|----------6--5--3-----------8--5--6-|-------------------------------------|\
D|-0--0--0-----------0--0--0----------|-0--0--0--8--5--4-s7--8--7--10--7--8-| \
   *  *  *           *  *  *            *  *  *                                \
                                                                                x2
   П  V  П  V        П  V  П  V  П  V   П     V  П  V  П  V  П  V  П  V  П     /
E|------------------------------------|-------------------------------------| /
B|------------------------------------|-------------------------------------|/
G|------------------------------------|-------------------------------------|
D|----------4h5p4-------------8--7--5-|-4h5p4----4--------------------------|
A|----------------6-------------------|-------6-----5--6--3--5-----3--------|
D|-0--0--0-----------0--0--0----------|-------------------------6-----5--6--|
   *  *  *           *  *  * 

Guitar 2 (w/ dist)

   П        П     П       П         П     П      П         П     П      П        П     П
E|--------|-------------|--------|-------------|--------|-------------|--------|-------------|
B|--------|-------------|--------|-------------|--------|-------------|--------|-------------|
G|-7------|-5---/s12----|-11-----|\s5-----3----|--------|-------------|--------|-------------|
D|-x------|-x-----x-----|-x------|--x-----x----|-7------|\s5---/s8----|-7------|-3-----1-----|
A|-5------|-3---/s10----|-9------|\s3-----1----|-x------|--x-----x----|-x------|-x-----x-----|
D|--------|-------------|--------|-------------|-7------|\s5---/s8----|-7------|-3-----1-----|

|--------------------------------------------------------------------------------------------------------|
|                                          CHORUS (01:10-01:31)                                          |
|--------------------------------------------------------------------------------------------------------|

Guitars 1 and 2 (w/ dist)

   П   П  V  П  V  П   П  V  П  V   П   П  V  П  V  П  V  П  П    П
E|--------------------------------|---------------------------------|
B|--------------------------------|---------------------------------|
G|--------------------------------|---------------------------------| x2
D|--------------------------------|---------------------------------|
A|--------------------------------|---------------------------------|
D|-0---0--6--3--5--0---0--1--3--1-|-0---0--6--3--5--0--1--3--5br--3-|
                                                    *  *  *  +

   П  V  П  V  П  V  П  V  П  V  П  V   П  V  П  V  П  V  П  V  П  П    П
E|------------------------------------|-----------------------------------|
B|------------------------------------|-----------------------------------|
G|------------------------------------|-----------------------------------| x2
D|------------------------------------|-----------------------------------|
A|------------------------------------|-----------------------------------|
D|-0--0--0--6--3--5--0--0--0--1--3--1-|-0--0--0--6--3--5--0--1--3--5br--3-|
   *  *  *           *  *  *            *  *  *           *  *  *  + 

   П  V  П  V  П   П  V  П  V  П        П  V      П  V  П  V  П  V  П
E|--------------------------------|------------------------------------|
B|--------------------------------|------------------------------------|
G|--------------------------------|------------------------------------|
D|--------------------------------|------------------------------------|
A|--------------------------------|------------------------------------|
D|-2--2--2--2--3b--2--2--2--2--3b-|-----2--2------2--2--3--2--5--4--3--|
   *  *  *  *  +   *  *  *  *  +        *  *      *  *

   П  V  П  V  П   П  V  П  V  П        П  V      П  V  П  V  П  V  П
E|--------------------------------|------------------------------------|
B|--------------------------------|------------------------------------|
G|--------------------------------|------------------------------------|
D|--------------------------------|------------------------------------|
A|--------------------------------|------------------------------------|
D|-2--2--2--2--3b--2--2--2--2--3b-|-----2--2------2--2--3--2--3--2--1--|
   *  *  *  *  +   *  *  *  *  +        *  *      *  *  

|--------------------------------------------------------------------------------------------------------|
|                                         VERSE 2 (01:31-01:44)                                          |
|--------------------------------------------------------------------------------------------------------|
                                              same as VERSE
|--------------------------------------------------------------------------------------------------------|
|                                       PRE-CHORUS 2 (01:44-01:58)                                       |
|--------------------------------------------------------------------------------------------------------|
                                           same as PRE-CHORUS
|--------------------------------------------------------------------------------------------------------|
|                                         CHORUS 2 (01:58-02:12)                                         |
|--------------------------------------------------------------------------------------------------------|

Guitars 1 and 2 (w/ dist)

   П   П  V  П  V  П   П  V  П  V   П   П  V  П  V  П  V  П  П    П
E|--------------------------------|---------------------------------|
B|--------------------------------|---------------------------------|
G|--------------------------------|---------------------------------| x2
D|--------------------------------|---------------------------------|
A|--------------------------------|---------------------------------|
D|-0---0--6--3--5--0---0--1--3--1-|-0---0--6--3--5--0--1--3--5br--3-|
                                                    *  *  *  +

   П  V  П  V  П  V  П  V  П  V  П  V   П  V  П  V  П  V  П  V  П  П    П
E|------------------------------------|-----------------------------------|
B|------------------------------------|-----------------------------------|
G|------------------------------------|-----------------------------------| x2
D|------------------------------------|-----------------------------------|
A|------------------------------------|-----------------------------------|
D|-0--0--0--6--3--5--0--0--0--1--3--1-|-0--0--0--6--3--5--0--1--3--5br--3-|
   *  *  *           *  *  *            *  *  *           *  *  *  +

|--------------------------------------------------------------------------------------------------------|
|                                          BRIDGE (02:12-02:48)                                          |
|--------------------------------------------------------------------------------------------------------|

I. Guitars 1 and 2 (w/ dist)

   П  V  П  V  П      П  V  П  V  П           П  V      П      П  V  П  V
E|--------------------------------------|-------------------------------------|
B|--------------------------------------|-------------------------------------|
G|--------------------------------------|-------------------------------------|
D|--------------------------------------|-------------------------------------|
A|--------------------------------------|-------------------------------------|
D|-1--1--1--1--1------1--1--1--1--1-----|-----1--1------1------1--1--1--1-----|
   *  *  *  *  *      *  *  *  *  *           *  *      *      *  *  *  *

   П  V  П  V  П      П  V  П  V  П           П  V      П      П  V 
E|--------------------------------------|-----------------------------------|
B|--------------------------------------|-----------------------------------|
G|--------------------------------------|-----------------------------------|
D|--------------------------------------|-----------------------------------|
A|--------------------------------------|-----------------------------------|
D|-1--1--1--1--1------1--1--1--1--1-----|-----1--1------1------1--1---------|
   *  *  *  *  *      *  *  *  *  *           *  *      *      *  *

   П  V  П  V  П      П  V  П  V  П           П  V      П      П  V  П  V
E|--------------------------------------|-------------------------------------|
B|--------------------------------------|-------------------------------------|
G|--------------------------------------|-------------------------------------| x4
D|--------------------------------------|-------------------------------------|
A|--------------------------------------|-------------------------------------|
D|-0--0--0--0--0------0--0--0--0--0-----|-----0--0------0------0--0--0--0-----|
   *  *  *  *  *      *  *  *  *  *           *  *      *      *  *  *  *

II. Guitar 1 (w/ dist)

   П  V  П  V  П      П  V  П  V  П           П  V      П      П  V  П  V
E|--------------------------------------|-------------------------------------|
B|--------------------------------------|-------------------------------------|
G|--------------------------------------|-------------------------------------| x3
D|--------------------------------------|-------------------------------------|
A|--------------------------------------|-------------------------------------|
D|-0--0--0--0--0------0--0--0--0--0-----|-----0--0------0------0--0--0--0-----|
   *  *  *  *  *      *  *  *  *  *           *  *      *      *  *  *  *

   П  V  П  V  П      П  V  П  V  П                                     П
E|--------------------------------------|-------------------------------------|
B|--------------------------------------|-------------------------------------|
G|--------------------------------------|-------------------------------------|
D|--------------------------------------|-----------------------------/s12s\--|
A|--------------------------------------|-----------------------------/s12s\--|
D|-0--0--0--0--0------0--0--0--0--0-----|-----------------------------/s12s\--|
   *  *  *  *  *      *  *  *  *  *  

    Guitar 2 (w/ dist)

   П  V  П  V  П  V  П  V  П  V  П  V   П  V  П  V  П  V  П  V  П  V   П  V
E|------------------------------------|-------------------------------------|
B|------------------------------------|-------------------------------------|
G|------------------------------------|-------------------------------------| x3
D|------------------------------------|-------------------------------------|
A|----------6--5--3-----------8--5--6-|-------------------------------------|
D|-0--0--0-----------0--0--0----------|-0--0--0--8--5--4-s7--8--7--10--7--8-|
   *  *  *           *  *  *            *  *  * 

   П  V  П  V  П  V  П  V  П  V  П  V   П     V  П  V  П  V  П  V  П  V  П 
E|------------------------------------|-------------------------------------|
B|------------------------------------|-------------------------------------|
G|------------------------------------|-------------------------------------|
D|------------------------------------|-4h5p4----4--------------------------|
A|----------6--5--3-----------8--5--6-|-------6-----5--6--3--5-----3--------|
D|-0--0--0-----------0--0--0----------|-------------------------6-----5--6--|
   *  *  *           *  *  * 

|--------------------------------------------------------------------------------------------------------|
|                                         CHORUS 3 (02:48-03:02)                                         |
|--------------------------------------------------------------------------------------------------------|
                                             same as CHORUS 2
|--------------------------------------------------------------------------------------------------------|
|                                         BRIDGE 2 (03:02-03:32)                                         |
|--------------------------------------------------------------------------------------------------------|

I. Guitar 1 (w/ dist)
                  
                     П  V  П  П    П   
E|------------------------------------|
B|------------------------------------|
G|------------------------------------|
D|------------------------------------|
A|------------------------------------|
D|-------------------0--4--7--7br--4--|
                     *            
                      
   Guitar 2 (w/ dist)

   П  V  П  П    П
E|------------------------------------|
B|------------------------------------|
G|------------------------------------|
D|------------------------------------|
A|------------------------------------|
D|-0--1--3--5br--3--------------------|
   *  *  *  +

II. Guitars 1 and 2 (w/ dist)

   П  V  П  V  П  V  П  V  П  V  П  V   П  V  П  V  П  V  П  V  П  V  П  V
E|------------------------------------|------------------------------------|
B|------------------------------------|------------------------------------|
G|------------------------------------|------------------------------------|
D|------------------------------------|-1-----------1-----1-----------1----|
A|-5-----------5-----5-----------5----|------------------------------------|
D|----5--0--5-----5-----5--0--5-----5-|----5--1--5-----5-----5--1--5-----5-|\
      *  *  *     *     *  *  *     *      *  *  *     *     *  *  *     *   \
                                                                              x4
   П  V  П  V  П  V  П  V  П  V  П  V   П  V  П  V  П  V  П  V  П  V  П  V   /
E|------------------------------------|------------------------------------|/
B|------------------------------------|------------------------------------|
G|------------------------------------|------------------------------------|
D|------------------------------------|------------------------------------|
A|------------------------------------|-0-----------0-----0-----------0----|
D|-8--7--5--7--8--7--8--7--5--7--8--7-|----5--1--0-----1-----5--1--0-----5-|
      *  *  *     *  *  *     *  *  *      *  *  *     *     *  *  *     *       

|--------------------------------------------------------------------------------------------------------|
|                                          OUTRO (03:32-03:50)                                           |
|--------------------------------------------------------------------------------------------------------|

Guitars 1 and 2 (w/ dist)

   П  V  П  V  П      П  V  П  V  П           П  V      П      П  V  П  V
E|--------------------------------------|-------------------------------------|
B|--------------------------------------|-------------------------------------|
G|--------------------------------------|-------------------------------------| x4
D|--------------------------------------|-------------------------------------|
A|--------------------------------------|-------------------------------------|
D|-0--0--0--0--0------0--0--0--0--0-----|-----0--0------0------0--0--0--0-----|
   *  *  *  *  *      *  *  *  *  *           *  *      *      *  *  *  *
 
   V       П   V       П   V   П   V   П   V   П
E|------------------------------------------------|
B|-------------------------13----------11---------|
G|-15-s14------12-h14----------15----------14-----| x6
D|---------12----------12----------12----------12-|
A|------------------------------------------------|
D|------------------------------------------------|

   V       П   V       П   V   П   V   П   V......................
E|------------------------------------------------|--------------|
B|-------------------------13----------11---------|--------------|
G|-15-s14------12-h14----------15----------14-----|--------------|
D|---------12----------12----------12-------------|--------------|
A|------------------------------------------------|--------------|
D|------------------------------------------------|--------------|



            
            
Suggest correction
Creating personal tab
Creating personal tab
You can edit any tab online and save it as your Personal.

You can edit, replace or remove any tab part or add personal notes – all changes will be seen only by you.

Personal tabs can be accessed anytime from any device, even offline.
Learn more »
comments
print report bad tab
guest
You may want to rate the tab now too:
select rating
Wanna post a correction for this tab? Suggest correction