Oops, an error
Loading. Please wait.

Nippon bass

573 views 1 this week
5 commentsread comments
1 2 3 4 5
2 more votes to show rating
add to favorites
×
Save as Personal and add changes to this tab that will be seen only by you. Learn more ›
×
You can save this tab as Personal to edit and correct it or add notes. All changes will be seen only by you. Learn more »
launch autoscroll
font size
0
reset
guitar tuner
edit
Autoscroll
slow
fast
+/-
esc
set tempo
stop
Nippon
Lamb of God
New American Gospel
Tuning: D A D G (Drop D)
Tabbed by bass_emagdnim (stipro@aggressive.com)

This is the bonus track off the remastered New American Gospel. Hardly see any word (or 
of this so here one is. Any corrections? Let me know (:

Key
 b : bend
 / : slide up to
  : slide down to
 h : hammer-on
 p : pull-off
 ~ : hold note

==========================================================================================
Intro: come in after drums (0:02)
G|-----------------------------------------------------------------------------------------------|
D|-----------------------------------------------------------------------------------------------|
A|---17-17-17-17---------------17-17-17-17---------------16-16-16-16----------------15-15-15-15--|
D|-0---0--0--0---0-0-0-000-0-0---0--0--0---0-0-0-000-0-0--0---0--0----0-0-0-000-0-0---0--0--0----|

|-----------------------------------| x3   |------------------------------|
|---------------17h18p17-16p1513----|      |------------------------------|
|-----------------------------------|      |------------------------------|
|-0-0-0-000-0-0---------------------|      |-1-0--0--0--0--0--00-0-0-0----|

|-------------------------------------------------------------------------------|
|-------------------------------------------------------------------------------|
|----17-17-17-17---------------16-16-16-16----------------15-15-15-15-----------|
|-0----0--0--0---0-0-0-000-0-0---0--0--0----0-0-0-000-0-0---0--0--0---2-2--1-1--|

Verse (0:39) x4
|--------------------------------------------------------|
|--------------------------------------------------------|
|--------------------------------------------------------|
|-0000005p3-3-6-0000005p3-3-6-0000005p3-3-6-6p5-6p5-3h5--|

Chorus/Riff 2 (0:59)
|--------------------------|-----------------| x2
|--------------------------|-----------------|
|--------------------------|-----------------|
|-00-00-00-00-00-00-00-00--|-0-0-1-0-0-0-1-0-|

|--------------------------|-----------------| x2
|--------------------------|-----------------|
|--------------------------|-----------------|
|-22-22-22-22-22-22-22-22--|-2-2-3-2-2-2-3-2-|

|-----------------------------|-----------------| x2
|-----------------------------|-----------------|
|-----------------------------|-----------------|
|-0-0-0--0-0-0--0-0-0--0-0-0--|-0-0-1-0-0-0-1-0-|

|-----------------------------|-----------------| x2
|-----------------------------|-----------------|
|-----------------------------|-----------------|
|-2-2-2--2-2-2--2-2-2--2-2-2--|-2-2-3-2-2-2-3-2-|

|-----------------------------|-----------------|
|-----------------------------|-----------------|
|-----------------------------|-----------------|
|-0-0-0--0-0-0--0-0-0--0-0-0--|-0-0-0-0-0-0-0-0-|

Rest 1:41-1:47

Riff 3 (1:47)
|--------------------------| x8
|--------------------------|
|-------6b-------3--3-6-5--|
|-0-0-0---00-00------------|

Riff 4 (2:07) x2
|-------------------------|-------------------------|-------------------------|
|-------------------------|-------------------------|-------------------------|
|------5---6---8---6------|------5---6---5---3------|------5---6---8---6------|
|-0-0-0-0-0-0-0-0-0-0-6-5-|-0-0-0-0-0-0-0-0-0-0-6-5-|-0-0-0-0-0-0-0-0-0-0-6-5-|

|-----------------------------|
|-----------------------------|
|------5---6-1----------------|
|-0-0-0-0-0-0--3-2-0-1-3------|

Riff 5 (2:27) x4
|--------------------------------------|
|--------------------------------------|
|--------------------------------------|
|-3-2-2-2-2-2-2-3-2-2-2-2-2-2-5-2-3-2--|

Riff 4 (2:38) x1

Fill (2:57)
|----------------------------|-----------------------|
|--17h18p17-16p1513---------|--17h18p17-16p1513------|
|----------------------------|-----------------------|
|--------------------0~------|-----------------------|

Riff 5: same as intro riff but play 1st part x1 instead of x3

Outro riff (3:26)
|--------------------------------------------------------| x2
|--------------------------------------------------------|
|--------------------------------------------------------|
|-0-0-0-5p3-3-6-0-0-0-5p3-3-6-0-0-0-5p3-3-6-6p5-6p5-3h5--|

|--------------------------------------------------|
|--------------------------------------------------|
|--------------------------------------------------|
|-00000030506-00000030506000000030506-6p5-6p5-3h5--|

|--------------------------------------------------------------------------|
|--------------------------------------------------------------------------|
|--------------------------------------------------------------------------|
|-00000030506-00000030506000000030506-6p5-6p5-3h5-6p5-6p5-3h5-6p5-6p5-3h5--|

|---------------|
|---------------|
|---------------|
|-3-5-6-3-2-1-0-|
Suggest correction
Creating personal tab
Creating personal tab
You can edit any tab online and save it as your Personal.

You can edit, replace or remove any tab part or add personal notes – all changes will be seen only by you.

Personal tabs can be accessed anytime from any device, even offline.
Learn more »
Give kudos to tab author, rate the tab!
1 2 3 4 5
comments
print report bad tab
5 comments total. Showing first comments.
+1 reply
swordsofplague 162 May 24, 2006 06:17 PM

good tab. i can't tell, but i think that in between the 17s, there are 0's played on the D string.

0 reply
bass_emagdnim 200 May 27, 2006 03:55 AM

ah yea... didn't think about that hehe. cheers anyways :)

0 reply
Satan Man 1,286 Dec 10, 2006 04:34 AM

dude its played on a 5 string. dunno wot tuning tho. apart from that great tab

guest
You may want to rate the tab now too:
select rating
Wanna post a correction for this tab? Suggest correction