Oops, an error
Loading. Please wait.
We have an official Now Youve Got Something To Die For tab made by UG professional guitarists. Check out the tab »
×
18,773 views 9 this week
5 commentsread comments
1 2 3 4 5
x 12
add to favorites
×
Save as Personal and add changes to this tab that will be seen only by you. Learn more ›
×
You can save this tab as Personal to edit and correct it or add notes. All changes will be seen only by you. Learn more »
launch autoscroll
font size
0
reset
guitar tuner
edit
Autoscroll
slow
fast
+/-
esc
set tempo
stop
Author
Difficulty
Lamb of God - Now You've Got Something To Die For

Drop D Tuning

Riff 1 x4
   e e e e e e e e   e e e e e e e e   e e e e e e e e   e e e e e e e e
|------------------|-----------------|-----------------|-----------------|
|4-----------------|-----------------|-----------------|-----------------|
|4-----------------|-----------------|-----------------|-----------------|
|--2-3-1-2-3-0-2-3-|-2-3-1-2-3-1/6-5-|-2-3-1-2-3-0-2-3-|-2-3-1-2-3-1/6-5-|

Riff 2 x4                                                       ( 3 )
  e e e e e e e e   e e e e e e e e   e e e e e e e e   e e e e e e e e e
|-----------------|-----------------|-----------------|-------------------|
|-----------------|-----------------|-----------------|-------------------|
|---------2---1---|-----------------|-----5---4-------|-------------------|
|-2-1-2-3---3---3-|-2-1-2-3-2-0-2-3-|-2-1---6---5-6-3-|-2-1-2-4-4h5p4-2-1-|

Fill 1 x1
  w           w            w            h     e  e e e   w           w
|----------|------------|------------|-----------------|----------|------------|
|----------|------------|------------|-----------------|----------|------------|
|----------|------------|------------|-----------------|----------|------------|
|-0--------|-(0)--------|-(0)--------|-(0)----13-7-0-1-|-0--------|-(0)--------|

          ( 3 )
  e e e e e e e e e   e e e e e e e e
|-------------------|-----------------|
|-------------------|-----------------|
|-------------------|-1-0-------------|
|-1-0-1-4-4h5p4-1-0-|-----5-4-0-1-7-6-|

Riff 3A x1
  e e e e e e e e   e  e  e  e  e e e e   s s  e  e  e  e e e e   e e e e e  e e e
|-----------------|---------------------|-----------------------|------------------|
|-----------------|---------------------|-----------------------|------------------|
|-----------------|---------------------|-----------------------|------------------|
|-0-0-0-0-0-0-0-0-|-11-15-14-10-0-0-0-0-|-1313-17-16-13-0-0-0-0-|-0-0-0-0-13-7-0-1-|

Riff 3B x1
  e e e e e e e e   e  e  e  e  e e e e   e e e e e e e e   e e e e e e e e
|-----------------|---------------------|-----------------|-----------------|
|-----------------|---------------------|-----------------|-----------------|
|-----------------|---------------------|-----------------|-------------5-6-|
|-0-0-0-0-0-0-0-0-|-11-15-14-10-0-0-1-0-|-1-4-1-0-5-4-0-8-|-1-4-1-0-3-6-----|

Riff 3A x1

Riff 3C x1                                        ( 3 )
  e e e e e e e e   e  e  e  e  e e e e   e e e e e e e e e   e e e e e e e e
|-----------------|---------------------|-------------------|-----------------|
|-----------------|---------------------|-------------------|-----------------|
|-----------------|---------------------|-------------------|-1-0-------------|
|-0-0-0-0-0-0-0-0-|-11-15-14-10-0-0-0-0-|-1-0-1-4-4h5p4-1-0-|-----5-4-0-1-7-6-|

Riff 2 x2

Riff 3A x1

Riff 3C x1

Riff 3A x1

Riff 3B x1

Fill 2 x1
  ss e ss e ss e Q   ss e ss e ss e Q   ss e ss e ss e Q    ss e ss e ss e
|------------------|------------------|------------------|-----------------|
|------------------|------------------|------------------|3----------------|
|------------------|------------------|------------------|4----------------|
|-22-2-22-2-22-2---|-22-2-22-2-22-2---|-22-2-22-2-22-2---|--22-2-22-2-22-2-|

   ss e ss e ss e Q   ss e ss e ss e Q   ss e ss e ss e Q    ss e ss e ss e
|-------------------|------------------|------------------|-----------------|
|4------------------|------------------|------------------|3----------------|
|4------------------|------------------|------------------|4----------------|
|--22-2-22-2-22-2---|-22-2-22-2-22-2---|-22-2-22-2-22-2---|--22-2-22-2-33-3-|

Riff 4A x2
   ss e ss e e e e e   ss e ss e e e e e   ss e ss e e e e e    ss e ss e e e
|--------------------|-------------------|-------------------|----------------|
|4-----------5-4-----|-----------8-7-----|-----------5-4-----|3---------------|
|4---------------6-5-|---------------8-7-|---------------6-5-|4---------------|
|--00-0-00-0---------|-00-0-00-0---------|-00-0-00-0---------|--00-0-00-0-0-1-|

Riff 4B x4
   e e e e e e e e   e e e e e e e e   e e e e e e e e   e e e e e e e e
|------------------|-----------------|-----------------|-----------------|
|4---------5-4-----|---------8-7-----|---------5-4-----|-8-7-------------|
|4-------------6-5-|-------------8-7-|-------------6-5-|-----8-7---------|
|--0-0-0-0---------|-0-0-0-0---------|-0-0-0-0---------|---------0-1-4-3-|

Fill 3 x1
  q.  q.  q     ss e e e E e ss e   e e e e e e e e   ss e e e E e ss e   q.  q.  q
|-------------|-------------------|-----------------|-------------------|-------------|
|-------------|-------------------|-----------------|-------------------|-------------|
|-6---6---6\--|-------------------|-----------------|-------------------|-------------|
|-------------|-00-0-0-0---0-11-0-|-1-0-3-0-3-4-3-1-|-11-0-0-0---0-11-0-|-1---1---1\--|

Riff 5A x3
  ss e e e e e e e   e e e e e e e e   ss e e e E e ss e   q.  q.  q
|------------------|-----------------|-------------------|-------------|
|------------------|-----------------|-------------------|-------------|
|------------------|-----------------|-------------------|-------------|
|-00-0-0-0-0-0-0-0-|-1-0-3-0-3-4-3-1-|-11-0-0-0---0-11-0-|-1---1---1\--|

Riff 5B x3
  e e e e e e e e   e e e e e e e e   e e e e e e e e   q.  q.  q
|-----------------|-----------------|-----------------|-------------|
|-----------------|-----------------|-----------------|-------------|
|-----------------|-----------------|-----------------|-------------|
|-1-0-0-0-0-0-0-0-|-1-0-3-0-3-4-3-1-|-1-0-0-0-0-0-0-0-|-1---1---1\--|

Fill 4 x1
  e e e e e e e e   e e e e e e e e   W         H
|-----------------|-----------------|--------|------|
|-----------------|-----------------|--------|2-----|
|-----------------|-----------------|--------|4-----|
|-1-0-0-0-0-0-0-0-|-1-0-3-0-3-4-3-1-|--------|------|

Riff 6 x3
   ss e e e e e e e   e e e e e e e e   ss e e e e e e e   q.   q.   q
|-------------------|-----------------|------------------|---------------|
|4------------------|-----------------|------------------|---------------|
|4------------------|-----------------|------------------|---------------|
|--11-0-0-0-0-0-0-0-|-1-0-3-0-3-4-3-1-|-11-0-0-0-0-0-0-0-|-1^---1^---1^--|

Fill 5 x1
   ss e e e e e e e   e e e e e e e e
|------------------|-----------------|
|------------------|-----------------|
|------------------|-----------------|
|-11-0-0-0-0-0-0-0-|-1-0-3-0-3-4-3-1-|

            
            
Suggest correction
Creating personal tab
Creating personal tab
You can edit any tab online and save it as your Personal.

You can edit, replace or remove any tab part or add personal notes – all changes will be seen only by you.

Personal tabs can be accessed anytime from any device, even offline.
Learn more »
comments
print report bad tab
5 comments total. Showing first comments.
0 reply
PSENEAD55bLM 10 Oct 04, 2007 05:57 PM

why this got no rating? i play this and it sounds fine to me...

+1 reply
HiyuKantaro 61 Feb 15, 2008 11:21 PM

Hell yeah :D!!!

0 reply
crazycram42094 72 Apr 29, 2009 11:18 AM

you could have moved a lot of these notes onto the A string. i saw a 13 on the E string.

guest
You may want to rate the tab now too:
select rating
Wanna post a correction for this tab? Suggest correction