Oops, an error
Loading. Please wait.
We have an official Omerta tab made by UG professional guitarists. Check out the tab »
×
22,815 views 6 this week
15 commentsread comments
1 2 3 4 5
x 21
add to favorites
×
Save as Personal and add changes to this tab that will be seen only by you. Learn more ›
×
You can save this tab as Personal to edit and correct it or add notes. All changes will be seen only by you. Learn more »
launch autoscroll
font size
0
reset
how to read this tab
guitar tuner
backing track
0:00
0:00
edit
Autoscroll
slow
fast
+/-
esc
set tempo
stop
Lamb of God - Omerta
Tuning - DADGBe
Tabbed by - hendrix117

/ - Slide
h - hammer on
p - pull off
PM - Palm Mute (* for continuation)

This is my first tab, so please rate. Also, send me any corrections you may have and if 
think that it is better than what I currently have, I might change it.

Thanks to Ducky!! for some corrections.

Main Riff
e----------------------------------------------------------------------|
B----------------------------------------------------------------------|
G----------------------------------------------------------------------|
D----------------------------------------------------------------------|
A----------5-----------------4-----------------7----------------5------|
D--0-0-000---0-0-0---0-0-000---0-0-0---0-0-000---0-0-0--0-8-0-87-7-----|
  PM * ***   * * *   * * ***   * * *   * * ***   * * *  *   *

e----------------------------------------------------------------------|
B----------------------------------------------------------------------|
G----------------------------------------------------------------------|
D---------------------------------------------------------6---6/10h12--|
A----------5-----------------4-----------------7-----------------------|
D--0-0-000---0-0-0---0-0-000---0-0-0---0-0-000---0-0-0--0---0----------|
  PM * ***   * * *   * * ***   * * *   * * ***   * * *  *   *
or:
e----------------------------------------------------------------------|
B----------------------------------------------------------------------|
G----------------------------------------------------------------------|
D---------------------------------------------------------6---6/10(10)-|
A----------5-----------------4-----------------7-----------------------|
D--0-0-000---0-0-0---0-0-000---0-0-0---0-0-000---0-0-0--0---0----------|
  PM * ***   * * *   * * ***   * * *   * * ***   * * *  *   *

Chorus 1
e----------------------------------------------------------------------|
B----------------------------------------------------------------------|
G----------------------------------------------------------------------|
D-3-6----3-6----3-6----3-6-3-6--6-0----6-0----6-0----6-0-6-0-----------|
A-3-6----3-6----3-6----3-6-3-6--6-0----6-0----6-0----6-0-6-0-----------|
D-3-6----3-6----3-6----3-6-3-6--6-0----6-0----6-0----6-0-6-0-----------|

e-------------------------------|
B-------------------------------|
G-------------------------------|
D-3-6----3-6----3-6----3-6-3-6--|
A-3-6----3-6----3-6----3-6-3-6--|
D-3-6----3-6----3-6----3-6-3-6--|

Chorus 2
e----------------------------------------------------------------------|
B----------------------------------------------------------------------|
G----------------------------------------------------------------------|
D-3-6----3-6----3-6----3-6-3-6--6-0----6-0----6-0----6-0-6-0-----------|x2
A-3-6----3-6----3-6----3-6-3-6--6-0----6-0----6-0----6-0-6-0-----------|
D-3-6----3-6----3-6----3-6-3-6--6-0----6-0----6-0----6-0-6-0-----------|

Bridge 1
e----------------------------|
B----------------------------|
G----------------------------|
D--------6------0-1----3-4---|
A--------6------0-1----3-4---|
D-0-0000-6--000-0-1-00-3-4---|
 PM ****    ***     **

Bridge 2
e--------------------------------------------|
B--------------------------------------------|
G--------------------------------------------|
D--------------------------------------------|
A--------------------------------------------|
D-00-6-8-00-3-5-00-5-0-00-0000---------------|
 PM*     **     **     ** ****

Bridge 3
e--------------------------------------------|
B--------------------------------------------|
G--------------------------------------------|
D----6-8----3-5----5-0-----------------------|
A----6-8----3-5----5-0-----------------------|
D-00-6-8-00-3-5-00-5-0-00-0000---------------|
 PM*     **     **     ** ****

Outro
e--------------------------------------------------|
B--------------------------------------------------|
G--------------------------------------------------|
D--------------------------------------------------|
A-0-00-5-0-0--0-00-4-0-0--0-00-7-0-0----------5----|
D-0-00---0-0--0-00---0-0--0-00---0-0--0-8-0-87-7---|

e-------------------------------------------------------|
B-------------------------------------------------------|
G-------------------------------------------------------|
D---------------------------------------6---6/10/12--00-|
A-0-00-5-0-0--0-00-4-0-0--0-00-7-0-0-----------------00-|
D-0-00---0-0--0-00---0-0--0-00---0-0--0---0----------00-|
 PM **   * *  * **   * *  * **   * *  *   *

or:

e-------------------------------------------------------|
B-------------------------------------------------------|
G-------------------------------------------------------|
D---------------------------------------6---6/10(10)-00-|
A-0-00-5-0-0--0-00-4-0-0--0-00-7-0-0-----------------00-|
D-0-00---0-0--0-00---0-0--0-00---0-0--0---0----------00-|
 PM **   * *  * **   * *  * **   * *  *   *      

            
            
Suggest correction
Creating personal tab
Creating personal tab
You can edit any tab online and save it as your Personal.

You can edit, replace or remove any tab part or add personal notes – all changes will be seen only by you.

Personal tabs can be accessed anytime from any device, even offline.
Learn more »
comments
print report bad tab
15 comments total. Showing first comments.
+1 reply
ducky!! 62 Jan 31, 2007 02:35 PM

good job man, only found 2 things that strike me as wrong

Bridge 1
e----------------------------|
B----------------------------|
G----------------------------|
D--------6------0-1----3-4---|
A--------6------0-1----3-4---|
D-0-0000-6--000-0-1-00-3-4---|
PM **** *** **

no way there's that little zeros

and

it says |--6---6/10h12--|
its not a hammer on, its a harmonic
it should be |--6---6/1010*--|

thats all, otherwise, nice job, hope this helps

-1 reply
metalmann577 30 Apr 16, 2007 12:56 PM

never mind i played in standard e
:)

+1 reply
bertha_mctubbs 10 May 23, 2007 06:08 PM

is there maybe a pinch harmonic in there ?

guest
You may want to rate the tab now too:
select rating
Wanna post a correction for this tab? Suggest correction