Oops, an error
Loading. Please wait.

Pariah bass

version 1
version 1

Whole song

Interactive

1,254 views 1 this week
4 commentsread comments
1 2 3 4 5
x 4
add to favorites
×
Save as Personal and add changes to this tab that will be seen only by you. Learn more ›
×
You can save this tab as Personal to edit and correct it or add notes. All changes will be seen only by you. Learn more »
launch autoscroll
font size
0
reset
guitar tuner
edit
Autoscroll
slow
fast
+/-
esc
set tempo
stop
Author
/3\= Triplet
.= Rest
r= Let Ring
q= Quarter note
e= Eighth note


Intro
G|------------|------------|
D|------------|------------|
A|/3\/3\/3\/3\|/3\/3\/3\/3\
D|000rrrrrr...|000000888000  X4

|------------|---------------|
|------------|---------------|
|------------|/3\/3\/3\/3\---|
|6-0-6-0-6---|000000888000---|  X4
 q e q e q

|--------|---------|
|--------|---------|
|--------|---------|
|--------|---------|  X3

|--------|----------|
|--------|----------|
|--------|----------|
|--------|1-00-1-00-|

Verse
|--------|------------|
|--------|------------|
|---3----|------------|
|000-0056|1-00-1-00---|  X4

|--------|------------|
|--------|------------|
|---3----|------------|
|000-0056|1-0--1-00---|  X4

Verse 2
|------------|--------------|
|------------|--------------|
|--/3\-------|--------------|
|0-0000-6-00-|6-00-6-0001---|  X4

Chorus X4
|----------|------------|
|----------|------------|
|------/3\-|/3\/3\/3\---|
|0000--000-|000000000---|  X2

|----------|------------|
|----------|------------|
|------/3\-|/3\/3\/3\---|
|6666--666-|666666666---|  X2

End of Chorus
|----------|
|----------|
|----------|
|0-0--0--0-|

Break Down X2
|---------|------------|
|---------|------------|
|---------|------------|
|0-0----0-|00-0-0-00---|  X3

|---------|----------|
|---------|----------|
|---------|----------|
|0-0----0-|00-0-0-76-|

|---------|----------|
|---------|----------|
|---------|----------|
|6-6----6-|66-6-6-66-|

|---------|----------|
|---------|----------|
|---------|----------|
|6-6----6-|66-6-6-60-|

Verse 2
|------------|--------------|
|------------|--------------|
|--/3\-------|--------------|
|0-0000-6-00-|6-00-6-0001---|  X8

Chorus X4
|----------|------------|
|----------|------------|
|------/3\-|/3\/3\/3\---|
|0000--000-|000000000---|  X2

|----------|------------|
|----------|------------|
|------/3\-|/3\/3\/3\---|
|6666--666-|666666666---|  X2

End of Chorus
|----------|
|----------|
|----------|
|0-0--0--0-|
Suggest correction
Creating personal tab
Creating personal tab
You can edit any tab online and save it as your Personal.

You can edit, replace or remove any tab part or add personal notes – all changes will be seen only by you.

Personal tabs can be accessed anytime from any device, even offline.
Learn more »
comments
print report bad tab
4 comments total. Showing first comments.
0 reply
Suckthebeef 123 Jun 25, 2008 01:56 AM

I have a feeling that the bass doesn't get higher in the chorus riff, but I could be wrong, cause this does sound pretty accurate.

-1 reply
Mr. Rapey 31 Jan 10, 2010 04:30 PM

Uhhhh, what the hell? Why in the glorious name of Satan would you put the /3\ shit on the A string? Cuz its very confusing. Furthermore, what is with the rrrrrr...? it only rings for 3 seconds. and the q and e shit made no sense. you are supposed to make dashes damnit. that is the whole damn point of a tab amd not a orcastra sheet. I hate you.

-the reason your grandma is dead...old age

0 reply
a ninja 10 May 29, 2010 08:18 PM

i think you will find most tabs have "the q and e shit"

guest
You may want to rate the tab now too:
select rating
Wanna post a correction for this tab? Suggest correction