Oops, an error
Loading. Please wait.
We have an official Pathetic tab made by UG professional guitarists. Check out the tab »
×
47,703 views 39 this week
7 commentsread comments
1 2 3 4 5
x 8
add to favorites
×
Save as Personal and add changes to this tab that will be seen only by you. Learn more ›
×
You can save this tab as Personal to edit and correct it or add notes. All changes will be seen only by you. Learn more »
launch autoscroll
font size
0
reset
how to read this tab
guitar tuner
backing track
0:00
0:00
edit
Autoscroll
slow
fast
+/-
esc
set tempo
stop
LAMB OF GOD
SACRAMENT
"PATHETIC"

Dropped D (d a d g b e)

gb = gradual bend
~ = vibrato

» INTRO
e|-------------------------------------------|---------------------------------------------|
b|-------------------------------------------|---------------------------------------------|
g|-------------------------------------------|---------------------------------------------|
d|-------------------------------------------|---------------------------------------------|
a|-------------------------------------------|---------------------------------------------|
d|-0-0-0--0--0-0-0--0--17b-r-15-12-0-12-13~~-|-0-0-0--0--0-0-0--0--17b-r-15-12-0-1-3-3-2-2-|
   .....  .  .....  .                          .....  .  .....  .              

e|-------------------------------------------|---------------------------------|
b|-------------------------------------------|---------------------------------|
g|-------------------------------------------|---------------------------------|
d|-------------------------------------------|---------------------------------|
a|-------------------------------------------|---------------------------------|
d|-0-0-0--0--0-0-0--0--17b-r-15-12-0-12-13~~-|-7-7-7-8-8-8-2-2-8-2-2-2-7-1-1-1-|
   .....  .  .....  .                     

e|-------------------------------------------|--------------------------------------------------|
b|-------------------------------------------|--------------------------------------------------|
g|-------------------------------------------|--------------------------------------------------|
d|-------------------------------------------|--------------------------------------------------|
a|-------------------------------------------|--------------------------------------------------|
d|-0-0-0--0--0-0-0--0--17b-r-15-12-0-15-14~~-|-0-0-0--0--0-0-0--0--17b-r-15-12-0-15-14-14-13-13-|
   .....  .  .....  .                          .....  .  .....  .

e|--------------------------------------------------|---------------------------------|
b|--------------------------------------------------|---------------------------------|
g|--------------------------------------------------|---------------------------------|
d|--------------------------------------------------|---------------------------------|
a|--------------------------------------------------|---------------------------------|
d|-0-0-0--0--0-0-0--0--17b-r-15-12-0-15-14-14-13-13-|-7-7-7-8-8-8-2-2-8-2-2-2-7-1-1-1-|
   .....  .  .....  .


» INTRO END/FILL
e|----------------------|
b|----------------------|
g|----------------------|
d|----------------------|
a|----------------------|
d|-7-7-7-8-8-8-2-2-1-gb-|



» VERSE
e|-----------------------------------------------------------|
b|-----------------------------------------------------------|
g|-----------------------------------------------------------|
d|-----------------------------------------------------------|
a|-----------------------------------------------------------|
d|-0-0-0--0-0--0-0-0--0-0---0-0-0--0-0---0-0-4\3-0-0-7\6-3-6-|
   .....  . .  .....  . .   .....  . .   ...     ...

e|----------------------------------------------------------|
b|----------------------------------------------------------|
g|----------------------------------------------------------|
d|----------------------------------------------------------|
a|----------------------------------------------------------|
d|-0--0--0--0--0-0-0--0-0---0-0-0--0-0--0-4-0-1-0-4-0-5-0-1-|
   .  .  .  .  .....  . .   .....  . .  ...................


e|---------------------------------------------------------------------------|
b|---------------------------------------------------------------------------|
g|---------------------------------------------------------------------------|
d|---------------------------------------------------------------------------|
a|---------------------------------------------------------------------------|
d|-0-0-0-0--0-0-0-0--0-0-0-0--0-0--0-0-0-0-0--0-0-0-0-0-0-0-4*br-0-0-6br-3-6-|
   .....    .....    .....    ...  .......    .............      ...  

e|----------------------------------------------------------------------------|
b|----------------------------------------------------------------------------|
g|----------------------------------------------------------------------------|
d|----------------------------------------------------------------------------|
a|----------------------------------------------------------------------------|
d|-0-0-0-0--0-0-0-0--0-0-0-0--0-0--0-0-0-0-0--0-0-0-0-0-0-0-4-0-1-0-4-0-5-0-1-|
   .....    .....    .....    ...  .......    ...............................


» CHORUS
e|-------------------|-----------------------------------|
b|-------------------|-----------------------------------|
g|-------------------|-----------------------------------|
d|-------------------|-----------------------------------|
a|-------------------|-----------------------------------|
d|-2--3--1--2--3-2-1-|-3-2-2-5-2-2-6-3-3-7-5-5-8-7-10/12-|


» 2nd CHORUS ENDING
e|-----------------------------------|-----------------------------------|
b|-----------------------------------|-----------------------------------|
g|-----------------------------------|-----------------------------------|
d|-----------------------------------|-----------------------------------|
a|-----------------------------------|-----------------------------------|
d|-2-2-2-3-3-3-1-1-1-2-2-2-3-2-1-1-1-|-3-2-2-5-2-2-6-3-3-7-5-5-8-7-10/12-|
   .................................   .................................



» INTERLUDE
e|-----------------------------------------|---------------------------------|
b|-----------------------------------------|---------------------------------|
g|-----------------------------------------|---------------------------------|
d|-----------------------------------------|---------------------------------|
a|---8*\7---8*\7---7*\6---7*\6-------------|-------------------------------8-|
d|-0------0------0------0------15-14-12-13-|-0-6-5-0-2-3-0-3-5-0-3-6-5-6-7---|
   .      .      .      .


e|---------------------------------------------|---------------------------------------------------|
b|---------------------------------------------|---------------------------------------------------|
g|---------------------------------------------|---------------------------------------------------|
d|---------------------------------------------|---------------------------------------------------|
a|---------------------------------------------|---------------------------------------------------|
d|-0-15-14-0-15-14-0-18-17-0-18-17-15-14-12-13-|-0--0--0--0--0--0--0-0-0-0--0--0--0--0--0--0--0--0-|
                                                 .  .  .  .  .  .  .......  .  .  .  .  .  .  .  .



» GUITAR SOLO (Ryhtym is CHORUS riff x2 for the 1st half of solo)
e|-------------------------------------------------------------------------
b|-------------------------------------------------------------------------
g|-working on it-----------------------------------------------------------
d|-------------------------------------------------------------------------
a|-------------------------------------------------------------------------
d|-------------------------------------------------------------------------


» RYTHYM (for second half of solo)                                  /----ending-----\
e|-----------------------------------------------------------------|-----------------|
b|-----------------------------------------------------------------|-----------------|
g|-----------------------------------------------------------------|-----------------|
d|-----------------------------------------------------------------|-----------------|
a|-0-0-0-0-0-0-0-0-1-1-1-1-1-1-1-1-0-0-0-0-0-0-0-0-3-3-3-3-3-3-3-3-|-----------------|
d|-0-0-0-0-0-0-0-0-3-3-3-3-3-3-3-3-2-2-2-2-2-2-2-2-1-1-1-1-1-1-1-1-|-0-1-0-5-0-1-0-5-|
   ...............................................................   ..............



» OUTRO
e|---------------------------|---------------------------|-----------------------------------------|
b|---------------------------|---------------------------|-----------------------------------------|
g|---------------------------|---------------------------|-----------------------------------------|
d|---------------------------|---------------------------|-----------------------------------------|
a|---------------------------|---------------------------|-----------------------------------------|
d|-0-0-0--0--0-0-0--0--0-0-0-|-0-0-0--0--0-0-0--0--0-0-0-|-0-0-0--0--0-0-0--0-5b-r-3-1-0-1-3-3-2-2-|
   .....  .  .....  .  .....   .....  .  .....  .  .....   .....  .  .....  .

im working out the solo, itll be added asap

            
            
Suggest correction
Creating personal tab
Creating personal tab
You can edit any tab online and save it as your Personal.

You can edit, replace or remove any tab part or add personal notes – all changes will be seen only by you.

Personal tabs can be accessed anytime from any device, even offline.
Learn more »
comments
print report bad tab
7 comments total. Showing first comments.
+1 reply
TheRaven666 10 Sep 16, 2006 09:12 AM

Nice Job dude!

0 reply
xCompanyCalls 40 Feb 11, 2007 01:32 PM

hey man, check out the live vid from the conan show on you tube. it should help your solo out.

+1 reply
[ArtheR] 10 Feb 28, 2007 05:13 PM

Great song , great tap . I think this tap is about 90% without solo! Great man!

guest
You may want to rate the tab now too:
select rating
Wanna post a correction for this tab? Suggest correction