Oops, an error
Loading. Please wait.

Reclamation bass

version 1
version 1

Whole song

Interactive

2,603 views 1 this week
1 commentread comment
1 2 3 4 5
x 3
add to favorites
×
Save as Personal and add changes to this tab that will be seen only by you. Learn more ›
×
You can save this tab as Personal to edit and correct it or add notes. All changes will be seen only by you. Learn more »
launch autoscroll
font size
0
reset
guitar tuner
backing track
0:00
0:00
edit
Autoscroll
slow
fast
+/-
esc
set tempo
stop
                   ||||-------------||||
                   |||| RECLAMATION ||||
                   ||||     BY      ||||
                   |||| LAMB OF GOD ||||
                   ||||-------------||||

Track : Reclamation
Artist: Lamb of God
Album : Wrath

I’ve tabbed this using a 5 string but most of it can be played on a four though, this is 
first tab hope you enjoy it =]
One of the best tracks off this album in my opinion!


>>>> Intro

b----------2------------------------------------------------|
f#-----2-----2--------------2-------------------------------|
c#------------------------------------6---------------------|
g#----------------------------------3-----------------------|
c#-0~---------0-1p0-1p0-0-0~--0-0-3-------------------------|

There is no bass at this point in the acoustic intro riff but this can be played with 
i put it in as a bit of fun
0:38


0:54

Add the distortion..
b----------------------------------------------------------------------|x4
f#---------------------------------------------------------------------|
c#---------------------------------------------------------------------|
g#--------------5------------5------------5-----------5h6-6-6-6-6---5--|
c#-3-3-3-3-3-3----0-0-0-0-0-----0-0-0-0-0----0-0-0-0-0-----------------|


1:11


b----------2------------------------------------------------|x6
f#-----2-----2--------------2-------------------------------|
c#------------------------------------6---------------------|
g#----------------------------------3-----------------------|
c#-0~---------0-1p0-1p0-0-0~--0-0-3-------------------------|

1:36

b----------------------------------------------------------------------|x4
f#---------------------------------------------------------------------|
c#---------------------------------------------------------------------|
g#--------------5------------5------------5-----------5h6-6-6-6-6---5--|
c#-3-3-3-3-3-3----0-0-0-0-0-----0-0-0-0-0----0-0-0-0-0-----------------|


1:53

Riff 1

b------------------------------------|              play these next two
f#-----------------------------------|              riffs four times
c#-----------------------------------|              together
d#-----------------------------------|
c#--4-4-4-4-4-4-4-4--5-5-5-5-5-5-5-5-|


b---------------------------------------------------|
f#--------------------------------------------------|
c#--------------------------------------------------|
d#---6-5-------------------6-5----------------------|
c#-------1p0-0-0-0-0-0-0--------1p0-0-0-0-0-0-------|

After this the intro riff is played for two riffs all of the above is played again.

3:29

Breakdown

b----------------------------------------|
f#---------------------------------------|
c#---------------------------------------|
d#---------------------------------------|
c#-000-0000-00-0000-00-000-0000-00-------|

Just listen and follow the rhythm

3:57

b-------------------------------------------|
f#------------------------------------------|
c#------------------------------------------|
d#-5--------3\5-----6p5--------8p5---6-5-6-5|
c#---000000-----000-----000000----000-------|


4:23
b--------------------------|
f#-------------------------|
c#-------------------------|
d#-------------------------|
c#-11—000-11-000-1-000-1---|

b--------------------------|
f#-------------------------|
c#-------------------------|
d#-------------------------|
c#-44—000-44-000-4-000-4---|


5:03
b-----------------------------------------|
f#----------------------------------------|
c#----------------------------------------|
d#-66-----66-----5---3--55-----55---------|
c#-—--000----000---0-------000----000-----|

at 5:54 the intro riff is played again by the guitars and there we go


thanx hope you enjoy this tab

Check out my band at www.myspace.com/crownofathos ;)
Suggest correction
Creating personal tab
Creating personal tab
You can edit any tab online and save it as your Personal.

You can edit, replace or remove any tab part or add personal notes – all changes will be seen only by you.

Personal tabs can be accessed anytime from any device, even offline.
Learn more »
Give kudos to tab author, rate the tab!
1 2 3 4 5
comments
print report bad tab
1 comment total.
+1 reply
slipknot4life17 10 Aug 15, 2010 06:07 AM

Lamb of god uses a 4 string bass with a drop D tuning this tab is completly wrong, even though it sounds kinda right

guest
You may want to rate the tab now too:
select rating
Wanna post a correction for this tab? Suggest correction