Oops, an error
Loading. Please wait.

Remorse Is For Dead bass

1,148 views 1 this week
no commentswrite comment
1 2 3 4 5
x 3
add to favorites
×
Save as Personal and add changes to this tab that will be seen only by you. Learn more ›
×
You can save this tab as Personal to edit and correct it or add notes. All changes will be seen only by you. Learn more »
launch autoscroll
font size
0
reset
guitar tuner
edit
Autoscroll
slow
fast
+/-
esc
set tempo
stop
Author
Difficulty
                     Remorse is for the dead                             


                                                                     Lamb of God
John Campbell



G||-------|-------|-------|-------|-------|-------|-------|-------|
D||-------|-------|-------|-------|-------|-------|-------|-------|
A||-------|-------|-------|-------|-------|-------|-------|-------|
D||-------|-------|-------|-------|-------|-------|-------|-------|


  H.            H        E  E     H.            H.            
-------------------------------|-----------------------------|
-------------------------------|-----------------------------|
-------------------------------|-----------------------------|
--0S------------7--------L--7--|--8S------------5------------|


  Q.     E  E  E  H        E  E     H.           E  E  E  E  E  E   
---------------------------------|---------------------------------|
---------------------------------|---------------------------------|
---------------------------------|---------------------------------|
--7------L--L--0--3--------L--3--|--5------------1--1--1--1--1--1--|


  H.            H        E  E     H.            H.            
-------------------------------|-----------------------------|
-------------------------------|-----------------------------|
-------------------------------|-----------------------------|
--0S------------7--------L--7--|--8S------------5------------|


  Q.     E  E  E  H        E  E     H.           E  E  E  E  E  E   
---------------------------------|---------------------------------|
---------------------------------|---------------------------------|
---------------------------------|---------------------------------|
--7------L--L--0--3--------L--3--|--5------------1--1--1--1--1--1--|


  H.            H        E  E     H.            H.            
-------------------------------|-----------------------------|
-------------------------------|-----------------------------|
-------------------------------|-----------------------------|
--0S------------7--------L--7--|--8S------------5------------|


  Q.     E  E  E  H        E  E     H.           E  E  E  E  E  E   
---------------------------------|---------------------------------|
---------------------------------|---------------------------------|
---------------------------------|---------------------------------|
--7------L--L--0--3--------L--3--|--5------------1--1--1--1--1--1--|


  H.            H        E  E     H.            H.            
-------------------------------|-----------------------------|
-------------------------------|-----------------------------|
-------------------------------|-----------------------------|
--0S------------7--------L--7--|--8S------------5------------|


  Q.     E  E  E  H        E  E     H.           E  E  E  E  E  E               
---------------------------------|---------------------------------|-----|-----|
---------------------------------|---------------------------------|-----|-----|
---------------------------------|---------------------------------|-----|-----|
--7------L--L--0--3--------L--3--|--5------------1--1--1--1--1--1--|-----|-----|


        E  E  E  E  E  E  E  E  S S S S S S S S  
-----|------------------------------------------|
-----|------------------------------------------|
-----|------------------------------------------|
-----|--0--0--0--0--3--0--3--6--0-0-0-0-0---0-0-|


  S S S S S S S S S S S S S S S S E  E  E  E     E  E  E  E  E  E  E  E   
----------------------------------------------|--------------------------|
----------------------------------------------|--------------------------|
----------------------------------------------|--------------------------|
----0-0---0-0-0-0-0-0-0-0-0-0-0-0-3--0--3--6--|--0--3--2--0--2--1--0--1--|


  E  E  E  E  E  E  E  E  S S S S S S S S  
------------------------------------------|
------------------------------------------|
------------------------------------------|
--0--0--0--0--3--0--3--6--0-0-0-0-0---0-0-|


  S S S S S S S S S S S S S S S S E  E  E  E     E  E  E  E  E  E  E  E   
----------------------------------------------|--------------------------|
----------------------------------------------|--------------------------|
----------------------------------------------|--------------------------|
----0-0---0-0-0-0-0-0-0-0-0-0-0-0-3--0--3--6--|--0--3--2--0--2--1--0--1--|


  E  E  E  E  E  E  E  E  S S S S S S S S  
------------------------------------------|
------------------------------------------|
------------------------------------------|
--0--0--0--0--3--0--3--6--0-0-0-0-0---0-0-|


  S S S S S S S S S S S S S S S S E  E  E  E     E  E  E  E  E  E  E  E   
----------------------------------------------|--------------------------|
----------------------------------------------|--------------------------|
----------------------------------------------|--------------------------|
----0-0---0-0-0-0-0-0-0-0-0-0-0-0-3--0--3--6--|--0--3--2--0--2--1--0--1--|


  E  E  E  E  E  E  E  E  S S S S S S S S  
------------------------------------------|
------------------------------------------|
------------------------------------------|
--0--0--0--0--3--0--3--6--0-0-0-0-0---0-0-|


  S S S S S S S S S S S S S S S S E  E  E  E     E  E  E  E  E  E  E  E   
----------------------------------------------|--------------------------|
----------------------------------------------|--------------------------|
----------------------------------------------|--------------------------|
----0-0---0-0-0-0-0-0-0-0-0-0-0-0-3--0--3--6--|--0--3--2--0--2--1--0--1--|


  E  E  E  E  E  E  E  E     E  E  E  E  E  E  E  E   
--------------------------|--------------------------|
--------------------------|--------------------------|
--1-----------3-----------|--------------------------|
-----2--1--2-----3--1--3--|--------------------------|


  E  E  E  E  E  E  E  E     E  E  E  E  S S E  E  S S  
--------------------------|----------------------------|
--------------------------|----------------------------|
--------------------------|----------------------------|
--------------------3--6--|--7--6--0--0--0-0-0--0--0-0-|


  E  E  S S E  E  S S E  E     E  E  E  E  E  E  E  E   
----------------------------|--------------------------|
----------------------------|--------------------------|
----------------------------|--------------------------|
--0--0--0-0-0--0--0-0-0--0--|--6--0--0--6--0--0--6--0--|


  E  E  E  E  E  E  E  E     E  E  E  E  E  E  E  E   
--------------------------|--------------------------|
--------------------------|--------------------------|
--------------------0--3--|--2--------2--------2-----|
--7--0--0--7--0--0--------|-----3--3-----3--3-----3--|


  E  E  E  E  E  E  E  E     E  E  E  E  E  E  E  E   
--------------------------|--------------------------|
--------------------------|--------------------------|
--1-----------------------|--------------------------|
-----3--2--1--0--1--2--3--|--6--0--0--6--0--0--6--0--|


  E  E  E  E  E  E  E  E     E  E  E  E  S S E  E  S S  
--------------------------|----------------------------|
--------------------------|----------------------------|
--------------------------|----------------------------|
--7--0--0--7--0--0--3--6--|--7--6--0--0--0-0-0--0--0-0-|


  E  E  S S E  E  S S E  E     E  E  E  E  E  E  E  E   
----------------------------|--------------------------|
----------------------------|--------------------------|
----------------------------|--------------------------|
--0--0--0-0-0--0--0-0-0--0--|--6--0--0--6--0--0--6--0--|


  E  E  E  E  E  E  E  E     E  E  E  E  E  E  E  E   
--------------------------|--------------------------|
--------------------------|--------------------------|
--------------------0--3--|--2--------2--------2-----|
--7--0--0--7--0--0--------|-----3--3-----3--3-----3--|


  E  E  E  E  E  E  E  E     E  E  E  E  E  E  E  E   
--------------------------|--------------------------|
--------------------------|--------------------------|
--1-----------------------|--------------------------|
-----3--2--1--0--1--2--3--|--6--0--0--6--0--0--6--0--|


  E  E  E  E  E  E  E  E     E  E  E  E  S S E  E  S S  
--------------------------|----------------------------|
--------------------------|----------------------------|
--------------------------|----------------------------|
--7--0--0--7--0--0--3--6--|--7--6--0--0--0-0-0--0--0-0-|


  E  E  S S E  E  S S E  E     E  E  E  E  E  E  E  E   
----------------------------|--------------------------|
----------------------------|--------------------------|
----------------------------|--------------------------|
--0--0--0-0-0--0--0-0-0--0--|--6--0--0--6--0--0--6--0--|


  E  E  E  E  E  E  E  E     E  E  E  E  E  E  E  E   
--------------------------|--------------------------|
--------------------------|--------------------------|
--------------------0--3--|--2--------2--------2-----|
--7--0--0--7--0--0--------|-----3--3-----3--3-----3--|


  E  E  E  E  E  E  E  E     S S S S E  E  E  E  S S S S  
--------------------------|------------------------------|
--------------------------|------------------------------|
--1-----------------------|------------------------------|
-----3--2--1--0--1--2--3--|--2-2-2-2-2--2--2--2--2-2-2-2-|


  E  E  E  E  S S S S S S S S    S S S S E  E  E  E  S S S S  
------------------------------|------------------------------|
------------------------------|------------------------------|
------------------------------|------------------------------|
--2--2--2--2--2-2-2-2-2-2-2-2-|--2-2-2-2-2--2--2--2--2-2-2-2-|


  E  E  E  E  S S S S S S S S    S S S S E  E  E  E  S S S S  
------------------------------|------------------------------|
------------------------------|------------------------------|
------------------------------|------------------------------|
--2--2--2--2--2-2-2-2-2-2-2-2-|--2-2-2-2-2--2--2--2--2-2-2-2-|


  E  E  E  E  S S S S S S S S    S S S S E  E  E  E  S S S S  
------------------------------|------------------------------|
------------------------------|------------------------------|
------------------------------|------------------------------|
--2--2--2--2--2-2-2-2-2-2-2-2-|--2-2-2-2-2--2--2--2--2-2-2-2-|


  S S S S E  E  E  E  Q       S S E  E  E  S S E  S S E   
---------------------------|-----------------------------|
---------------------------|-----------------------------|
---------------------------|-----------------------------|
--2-2-2-2-2--2--2--3--L----|--3-6-3--2--2--2-2-2--3-6-3--|


  E  E  E  E  S S E  E  E     S S E  E  E  S S E  S S E   
---------------------------|-----------------------------|
---------------------------|-----------------------------|
---------------------------|-----------------------------|
--2--2--2--2--2-2-2--2--2--|--3-6-3--2--2--2-2-2--3-6-3--|


  E  E  E  E  E  Q.        S S E  E  E  S S E  S S E   
------------------------|-----------------------------|
------------------------|-----------------------------|
------------------------|-----------------------------|
--2--2--2--2--2--3------|--3-6-3--2--2--2-2-2--3-6-3--|


  E  E  E  E  S S E  E  E     S S E  E  E  S S E  S S E   
---------------------------|-----------------------------|
---------------------------|-----------------------------|
---------------------------|-----------------------------|
--2--2--2--2--2-2-2--2--2--|--3-6-3--2--2--2-2-2--3-6-3--|


  E  E  E  E  E  Q.        E  E  E  E  E  E  E  E     E  E  E  E  E  E  E  E   
------------------------|--------------------------|--------------------------|
------------------------|--------------------------|--------------------------|
------------------------|--------------------------|--------------------------|
--2--2--2--2--2--3------|--0-----------------------|--------------------3--6--|


  E  E  E  E  S S E  E  S S    E  E  S S E  E  S S E  E   
----------------------------|----------------------------|
----------------------------|----------------------------|
----------------------------|----------------------------|
--7--6--0--0--0-0-0--0--0-0-|--0--0--0-0-0--0--0-0-0--0--|


  E  E  E  E  E  E  E  E     E  E  E  E  E  E  E  E   
--------------------------|--------------------------|
--------------------------|--------------------------|
--------------------------|--------------------0--3--|
--6--0--0--6--0--0--6--0--|--7--0--0--7--0--0--------|


  E  E  E  E  E  E  E  E     E  E  E  E  E  E  E  E   
--------------------------|--------------------------|
--------------------------|--------------------------|
--2--------2--------2-----|--1-----------------------|
-----3--3-----3--3-----3--|-----3--2--1--0--1--2--3--|


  E  E  E  E  E  E  E  E     E  E  E  E  E  E  E  E   
--------------------------|--------------------------|
--------------------------|--------------------------|
--------------------------|--------------------------|
--6--0--0--6--0--0--6--0--|--7--0--0--7--0--0--3--6--|


  E  E  E  E  S S E  E  S S    E  E  S S E  E  S S E  E   
----------------------------|----------------------------|
----------------------------|----------------------------|
----------------------------|----------------------------|
--7--6--0--0--0-0-0--0--0-0-|--0--0--0-0-0--0--0-0-0--0--|


  E  E  E  E  E  E  E  E     E  E  E  E  E  E  E  E   
--------------------------|--------------------------|
--------------------------|--------------------------|
--------------------------|--------------------0--3--|
--6--0--0--6--0--0--6--0--|--7--0--0--7--0--0--------|


  E  E  E  E  E  E  E  E     E  E  E  E  E  E  E  E   
--------------------------|--------------------------|
--------------------------|--------------------------|
--2--------2--------2-----|--1-----------------------|
-----3--3-----3--3-----3--|-----3--2--1--0--1--2--3--|


  S S S S E  E  E  E  S S S S    E  E  E  E  S S S S S S S S  
------------------------------|------------------------------|
------------------------------|------------------------------|
------------------------------|------------------------------|
--2-2-2-2-2--2--2--2--2-2-2-2-|--2--2--2--2--2-2-2-2-2-2-2-2-|


  S S S S E  E  E  E  S S S S    E  E  E  E  S S S S S S S S  
------------------------------|------------------------------|
------------------------------|------------------------------|
------------------------------|------------------------------|
--2-2-2-2-2--2--2--2--2-2-2-2-|--2--2--2--2--2-2-2-2-2-2-2-2-|


  S S S S E  E  E  E  S S S S    E  E  E  E  S S S S S S S S  
------------------------------|------------------------------|
------------------------------|------------------------------|
------------------------------|------------------------------|
--2-2-2-2-2--2--2--2--2-2-2-2-|--2--2--2--2--2-2-2-2-2-2-2-2-|


  S S S S E  E  E  E  S S S S    S S S S E  E  E  E  Q     
------------------------------|---------------------------|
------------------------------|---------------------------|
------------------------------|---------------------------|
--2-2-2-2-2--2--2--2--2-2-2-2-|--2-2-2-2-2--2--2--3--L----|


  S S E  E  E  S S E  S S E     E  E  E  E  S S E  E  E   
-----------------------------|---------------------------|
-----------------------------|---------------------------|
-----------------------------|---------------------------|
--3-6-3--2--2--2-2-2--3-6-3--|--2--2--2--2--2-2-2--2--2--|


  S S E  E  E  S S E  S S E     E  E  E  E  E  Q.      
-----------------------------|------------------------|
-----------------------------|------------------------|
-----------------------------|------------------------|
--3-6-3--2--2--2-2-2--3-6-3--|--2--2--2--2--2--3------|


  S S E  E  E  S S E  S S E     E  E  E  E  S S E  E  E   
-----------------------------|---------------------------|
-----------------------------|---------------------------|
-----------------------------|---------------------------|
--3-6-3--2--2--2-2-2--3-6-3--|--2--2--2--2--2-2-2--2--2--|


  S S E  E  E  S S E  S S E     E  E  E  E  E  E  Q       W                 
-----------------------------|-------------------------|-------------------|
-----------------------------|-------------------------|-------------------|
-----------------------------|-------------------------|-------------------|
--3-6-3--2--2--2-2-2--3-6-3--|--2--2--2--2--2--0--0----|--L----------------|


          E  S S S S E  E  S S S S S S    S S E  S S E  E  S S S S E   
-------|-------------------------------|------------------------------|
-------|-------------------------------|------------------------------|
-------|-------------------------------|------------------------------|
-------|--0--0-0-0-0-1--0--0-0-0-0-0-0-|--L-0-0--0-0-1--0--0-0-0-0----|


  E  S S S S E  E  S S S S S S    S S E  S S E  E  S S S S E   
-------------------------------|------------------------------|
-------------------------------|------------------------------|
-------------------------------|------------------------------|
--0--0-0-0-0-1--0--0-0-0-0-0-0-|--L-0-0--0-0-1--0--0-0-0-0----|


  E  S S S S E  E  S S S S S S    S S E  S S E  E  S S S S E   
-------------------------------|------------------------------|
-------------------------------|------------------------------|
-------------------------------|------------------------------|
--0--0-0-0-0-1--0--0-0-0-0-0-0-|--L-0-0--0-0-1--0--0-0-0-0----|


  E  S S S S E  E  S S S S S S    S S E  S S E  E  S S S S E   
-------------------------------|------------------------------|
-------------------------------|------------------------------|
-------------------------------|------------------------------|
--0--0-0-0-0-1--0--0-0-0-0-0-0-|--L-0-0--0-0-1--0--0-0-0-0----|


  E  S S S S E  E  S S S S S S    S S E  S S E  E  S S S S E   
-------------------------------|------------------------------|
-------------------------------|------------------------------|
-------------------------------|------------------------------|
--0--0-0-0-0-1--0--0-0-0-0-0-0-|--L-0-0--0-0-1--0--0-0-0-0----|


  E  S S S S E  E  S S S S S S    S S E  S S E  E  S S S S E   
-------------------------------|------------------------------|
-------------------------------|------------------------------|
-------------------------------|------------------------------|
--0--0-0-0-0-1--0--0-0-0-0-0-0-|--L-0-0--0-0-1--0--0-0-0-0----|


  E  S S S S E  E  S S S S S S    S S E  S S E  E  S S S S E   
-------------------------------|------------------------------|
-------------------------------|------------------------------|
-------------------------------|------------------------------|
--0--0-0-0-0-1--0--0-0-0-0-0-0-|--L-0-0--0-0-1--0--0-0-0-0----|


  E  S S S S E  E  S S S S S S    S S E  S S E  E  S S S S E   
-------------------------------|------------------------------|
-------------------------------|------------------------------|
-------------------------------|------------------------------|
--0--0-0-0-0-1--0--0-0-0-0-0-0-|--L-0-0--0-0-1--0--0-0-0-0----|


  E  S S S S E  E  S S S S S S    S S E  S S E  E  S S S S E   
-------------------------------|------------------------------|
-------------------------------|------------------------------|
-------------------------------|------------------------------|
--0--0-0-0-0-1--0--0-0-0-0-0-0-|--L-0-0--0-0-1--0--0-0-0-0----|


  E  S S S S E  E  S S S S S S    S S E  S S E  E  S S S S E   
-------------------------------|------------------------------|
-------------------------------|------------------------------|
-------------------------------|------------------------------|
--0--0-0-0-0-1--0--0-0-0-0-0-0-|--L-0-0--0-0-1--0--0-0-0-0----|


  E  S S S S E  E  S S S S S S    S S E  S S E  E  S S S S E   
-------------------------------|------------------------------|
-------------------------------|------------------------------|
-------------------------------|------------------------------|
--0--0-0-0-0-1--0--0-0-0-0-0-0-|--L-0-0--0-0-1--0--0-0-0-0----|


  E  S S S S E  E  S S S S S S    S S E  S S E  E  S S S S S S  
-------------------------------|-------------------------------|
-------------------------------|-------------------------------|
-------------------------------|-------------------------------|
--0--0-0-0-0-1--0--0-0-0-0-0-0-|--L-0-0--0-0-1--0--0-0-0-0-0-0-|


  S S S S H        Q       Q    E  E  E  E  E  E   
------------------------|-------------------------|
------------------------|-------------------------|
------------------------|-------8--7-----7--6-----|
----0-0---1--------0----|--0----------0-----------|


  E  S S S S E  E  S S S S S S    S S E  S S E  E  S S S S S S  
-------------------------------|-------------------------------|
-------------------------------|-------------------------------|
-------------------------------|-------------------------------|
--0--0-0-0-0-1--0--0-0-0-0-0-0-|--L-0-0--0-0-1--0--0-0-0-0-0-0-|


  S S S S H        Q       Q    E  E  E  E  E  E   
------------------------|-------------------------|
------------------------|-------------------------|
------------------------|-------8--7-----7--6-----|
----0-0---1--------0----|--0----------0-----------|


  E  S S S S E  E  S S S S S S    S S E  S S E  E  S S S S S S  
-------------------------------|-------------------------------|
-------------------------------|-------------------------------|
-------------------------------|-------------------------------|
--0--0-0-0-0-1--0--0-0-0-0-0-0-|--L-0-0--0-0-1--0--0-0-0-0-0-0-|


  S S S S H        Q       Q    E  E  E  E  E  E   
------------------------|-------------------------|
------------------------|-------------------------|
------------------------|-------8--7-----7--6-----|
----0-0---1--------0----|--0----------0-----------|


  E  S S S S E  E  S S S S S S    S S E  S S E  E  S S S S S S  
-------------------------------|-------------------------------|
-------------------------------|-------------------------------|
-------------------------------|-------------------------------|
--0--0-0-0-0-1--0--0-0-0-0-0-0-|--L-0-0--0-0-1--0--0-0-0-0-0-0-|


  S S S S H        Q       Q    E  E  E  E  E  E   
------------------------|-------------------------|
------------------------|-------------------------|
------------------------|-------8--7-----7--6-----|
----0-0---1--------0----|--0----------0-----------|


  E  S S S S E  E  S S S S S S    S S E  S S E  E  S S S S E   
-------------------------------|------------------------------|
-------------------------------|------------------------------|
-------------------------------|------------------------------|
--0--0-0-0-0-1--0--0-0-0-0-0-0-|--L-0-0--0-0-1--0--0-0-0-0----|


  E  S S S S E  E  S S S S S S    S S E  S S E  E  S S S S E   
-------------------------------|------------------------------|
-------------------------------|------------------------------|
-------------------------------|------------------------------|
--0--0-0-0-0-1--0--0-0-0-0-0-0-|--L-0-0--0-0-1--0--0-0-0-0----|


  E  S S S S E  E  S S S S S S    S S E  S S E  E  S S S S E   
-------------------------------|------------------------------|
-------------------------------|------------------------------|
-------------------------------|------------------------------|
--0--0-0-0-0-1--0--0-0-0-0-0-0-|--L-0-0--0-0-1--0--0-0-0-0----|


  E  S S S S E  E  S S S S S S    S S E  S S E  E  S S S S E   
-------------------------------|------------------------------|
-------------------------------|------------------------------|
-------------------------------|------------------------------|
--0--0-0-0-0-1--0--0-0-0-0-0-0-|--L-0-0--0-0-1--0--0-0-0-0----|


  E  S S S S E  E  S S S S S S    S S E  S S E  E  S S S S E   
-------------------------------|------------------------------|
-------------------------------|------------------------------|
-------------------------------|------------------------------|
--0--0-0-0-0-1--0--0-0-0-0-0-0-|--L-0-0--0-0-1--0--0-0-0-0----|


  E  S S S S E  E  S S S S S S    S S E  S S E  E  S S S S E   
-------------------------------|------------------------------|
-------------------------------|------------------------------|
-------------------------------|------------------------------|
--0--0-0-0-0-1--0--0-0-0-0-0-0-|--L-0-0--0-0-1--0--0-0-0-0----|


  E  S S S S E  E  S S S S S S    S S E  S S E  E  S S S S E   
-------------------------------|------------------------------|
-------------------------------|------------------------------|
-------------------------------|------------------------------|
--0--0-0-0-0-1--0--0-0-0-0-0-0-|--L-0-0--0-0-1--0--0-0-0-0----|


  E  S S S S E  E  S S S S S S    S S E  S S E  E  S S S S E   
-------------------------------|------------------------------|
-------------------------------|------------------------------|
-------------------------------|------------------------------|
--0--0-0-0-0-1--0--0-0-0-0-0-0-|--L-0-0--0-0-1--0--0-0-0-0----|


  E  S S S S E  E  S S S S S S    S S E  S S E  E  S S S S E   
-------------------------------|------------------------------|
-------------------------------|------------------------------|
-------------------------------|------------------------------|
--0--0-0-0-0-1--0--0-0-0-0-0-0-|--L-0-0--0-0-1--0--0-0-0-0----|


  E  S S S S E  E  S S S S S S    S S E  S S E  E  S S S S E   
-------------------------------|------------------------------|
-------------------------------|------------------------------|
-------------------------------|------------------------------|
--0--0-0-0-0-1--0--0-0-0-0-0-0-|--L-0-0--0-0-1--0--0-0-0-0----|


  E  S S S S E  E  S S S S S S    S S E  S S E  E  S S S S E   
-------------------------------|------------------------------|
-------------------------------|------------------------------|
-------------------------------|------------------------------|
--0--0-0-0-0-1--0--0-0-0-0-0-0-|--L-0-0--0-0-1--0--0-0-0-0----|


  E  S S S S E  E  S S S S S S    S S E  S S E  E  S S S S E          
-------------------------------|------------------------------|-----||
-------------------------------|------------------------------|-----||
-------------------------------|------------------------------|-----||
--0--0-0-0-0-1--0--0-0-0-0-0-0-|--L-0-0--0-0-1--0--0-0-0-0----|-----||




Duration Legend
---------------
W - whole
H - half
Q - quarter
E - 8th
S - 16th
T - 32nd
X - 64th
. - note dotted
|-n-|  - n-tuplets


Tablature Legend
----------------
L - tied note
x - dead note
g - grace note
(n) - ghost note
> - accentuded note
NH - natural harmonic
AH - artificial harmonic
TH - tapped harmonic
SH - semi harmonic
PH - pitch harmonic
h - hammer on
p - pull off
b - bend
br - bendRelease
pb - preBend
pbr - preBendRelease
brb - bendReleaseBend
\n/ - tremolo bar dip
\n - tremolo bar dive
-/n - tremolo bar Release up
/n\ - tremolo bar inverted dip
/n - tremolo bar return
-\n - tremolo bar Release down
S - shift slide
s - legato slide
/ -  slide into from below or out of upwards
\ -  slide into from above or out of downwards
~ - vibrato
W - wide vibrato
tr - trill
TP - tremolo picking
T - tapping
S - slap
P - pop
< - fade in
^ - brush up
v - brush down

            
            
Suggest correction
Creating personal tab
Creating personal tab
You can edit any tab online and save it as your Personal.

You can edit, replace or remove any tab part or add personal notes – all changes will be seen only by you.

Personal tabs can be accessed anytime from any device, even offline.
Learn more »
Give kudos to tab author, rate the tab!
1 2 3 4 5
comments
print report bad tab
guest
You may want to rate the tab now too:
select rating
Wanna post a correction for this tab? Suggest correction