Oops, an error
Loading. Please wait.

Remorse Is For The Dead bass

version 1
version 1

Whole song

Interactive

2,305 views 1 this week
no commentswrite comment
1 2 3 4 5
2 more votes to show rating
add to favorites
×
Save as Personal and add changes to this tab that will be seen only by you. Learn more ›
×
You can save this tab as Personal to edit and correct it or add notes. All changes will be seen only by you. Learn more »
launch autoscroll
font size
0
reset
guitar tuner
edit
Autoscroll
slow
fast
+/-
esc
set tempo
stop
Author
Difficulty
Lamb of God - Remore Is For The Dead

Drop D Tuning

Riff 1 x6
   h.        h.        h.        h.        h.        h.        h.        q.  q.
|----------|---------|---------|---------|---------|---------|---------|---------|
|3---------|---------|---------|---------|---------|---------|---------|---------|
|4---------|---------|---------|---------|---------|---------|---------|---------|
|--0-------|-7-------|-8-------|-5-------|-7-------|-3-------|-5-------|-1---1---|

Fill 1 x1
  e e e e e e   e e e e e e   e e e e e e   e e e e e e
|-----2---0---|-----2---0---|-----2---0---|-----2---0---|
|-----------0-|-----------0-|-----------0-|-----------0-|
|-------------|-------------|-------------|-------------|
|-1-0---1-----|-1-0---1-----|-1-0---1-----|-1-0---1-----|

Riff 2 x4
   e e e e e e e e   sssssSssSssSssss   ssssssss e e e e   e e e e e e e e
|------------------|------------------|------------------|-----------------|
|4-----------------|------------------|------------------|-----------------|
|4-----------------|------------------|------------------|-----------------|
|--0-0-0-0-0-0-3h6-|-00000-00-00-0000-|-00000000-3-0-3h6-|-0-3p2-0-2p1-0-1-|

Fill 2 x1
  e e e e e e e e
|-----------------|
|-----------------|
|-1-------3-------|
|---3-2-3---4-3-1-|

Riff 3 x2
  e e e e e e e e   e e e e e e e e   e e e e ss e e ss   e e ss e e ss e e
|-----------------|-----------------|-------------------|-------------------|
|-----------------|-----------------|-------------------|-------------------|
|-----------------|-----------------|-------------------|-------------------|
|-6-0-0-6-0-0-6-0-|-7-0-0-7-0-0-3-6-|-7-6-0-0-00-0-0-00-|-0-0-00-0-0-00-0-0-|

  e e e e e e e e   e e e e e e e e   e e e e e e e e   e e e e e e e e
|-----------------|-----------------|-----------------|-----------------|
|-----------------|-----------------|-----------------|-----------------|
|-----------------|-------------0-3-|-2-----2-----2---|-1---------------|
|-6-0-0-6-0-0-6-0-|-7-0-0-7-0-0-----|---3-3---3-3---3-|---3-2-1-0-1-2-3-|

Rest for 1 bar

Riff 3 x1

Riff 4A x3
  ssss e e e e ssss   e e e e ssssssss
|-------------------|------------------|
|-------------------|------------------|
|-------------------|------------------|
|-3632-2-2-2-2-3632-|-2-2-2-2-36322222-|

Fill 3 x1
  ssss e e e e ssss   e e e e e q.
|-------------------|----------------|
|-------------------|----------------|
|-------------------|----------------|
|-3632-2-2-2-2-3632-|-2-2-2-2-2-3----|

Riff 4B x2
  s s s s e e e e s s s s   e e e e s s s s e e   s s s s e e e e s s s s   e e e e e q.
|-------------------------|---------------------|-------------------------|----------------|
|-------------------------|---------------------|-------------------------|----------------|
|-------------------------|---------------------|-------------------------|----------------|
|-3h6p3/2-2-2-2-2-3h6p3/2-|-2-2-2-2-3h6p3/2-2-1-|-3h6p3/2-2-2-2-2-3h6p3/2-|-2-2-2-2-2-3----|

Riff 3 x2

Rest for 1 bar

Riff 4A x3

Fill 3 x1

Riff 4B x1

Fill 4 x1
  s s s s e e e e s s s s   e e e e s s s s e e   s s s s e e e e e e    w        w
|-------------------------|---------------------|---------------------|--------|--------|
|-------------------------|---------------------|---------------------|--------|--------|
|-------------------------|---------------------|---------------------|--------|--------|
|-3h6p3/2-2-2-2-2-3h6p3/2-|-2-2-2-2-3h6p3/2-2-1-|-3h6p3/2-2-2-2-2-3-0-|-(0)----|-(0)----|

Riff 5 x12            (     3     )
                      (3)  (3)  (3)
  E e ssss e e ssss   e q  e q  e q  e e ssss
|-------------------|-------------------------|
|-------------------|-------------------------|
|-------------------|-------------------------|
|---0-0000-1-0-0000-|-0-0--0-0--0-0--1-0-0000-|

Riff 6 x5
  se se q   e    e  q  e e e e e   E e ssss e e ssss   se se ss e e ssss
|-------------|------------------|-------------------|-------------------|
|-------------|------------------|-------------------|-------------------|
|-------------|--------8-7---7-6-|-------------------|-------------------|
|-00-00-1^--0-|-(0)-0------0-----|---0-0000-1-0-0000-|-00-00-00-1-0-0000-|

Fill 5 x1
  se se q   e    e  q  e e e e e
|-------------|------------------|
|-------------|------------------|
|-------------|--------8-7---7-6-|
|-00-00-1^--0-|-(0)-0------0-----|

Riff 5 x8

            
            
Suggest correction
Creating personal tab
Creating personal tab
You can edit any tab online and save it as your Personal.

You can edit, replace or remove any tab part or add personal notes – all changes will be seen only by you.

Personal tabs can be accessed anytime from any device, even offline.
Learn more »
Give kudos to tab author, rate the tab!
1 2 3 4 5
comments
print report bad tab
guest
You may want to rate the tab now too:
select rating
Wanna post a correction for this tab? Suggest correction