Oops, an error
Loading. Please wait.

Remorse Is For The Dead intro tab

version 1
version 1

Intro

Whole song

Interactive

5,572 views 1 this week
6 commentsread comments
1 2 3 4 5
x 3
add to favorites
×
Save as Personal and add changes to this tab that will be seen only by you. Learn more ›
×
You can save this tab as Personal to edit and correct it or add notes. All changes will be seen only by you. Learn more »
launch autoscroll
font size
0
reset
how to read this tab
guitar tuner
edit
Autoscroll
slow
fast
+/-
esc
set tempo
stop
Remorse is for the Dead, by Lamb of God

i did my best to figure it out by ear... and this is what i got...

tabbed out by:LeViaThaN

Guitar 1
e|---------------------------------------------| 
b|---------------------------------------------|
g|---------------------------------------------|
d|---------------------------------------------|
a|---------------------------------------------|
d|----0----7----8----5----7----0h3----5----1---|

then

e|----------------------------------------------------------------------| 
b|----------------------------------------------------------------------|
g|----------------------------------------------------------------------|
d|--------7------7------8------5------7--------3------5------3p0-2------|
a|------5------5------5------5------5--------3------5------1------------|
d|----0------7------8------5------7------0h3------5------1--------------|

Guitar 2
e|--------------------------------------------------------------------------------------| 
b|--------------------------------------------------------------------------------------|
g|--------------------------------------------------------------------------------------|
d|----7--7------7--7------8--8------7--5------7--7------5--5------7--7h8-----0---3p0-2--|
a|---0--0--0---0--0--0---0--0--0---0--0--0---0--0--0---0--0--0---0--0--0---0------------|
d|--------------------------------------------------------------------------------------|
Suggest correction
Creating personal tab
Creating personal tab
You can edit any tab online and save it as your Personal.

You can edit, replace or remove any tab part or add personal notes – all changes will be seen only by you.

Personal tabs can be accessed anytime from any device, even offline.
Learn more »
Give kudos to tab author, rate the tab!
1 2 3 4 5
comments
print report bad tab
6 comments total. Showing first comments.
0 reply
LeViaThaN 10 Sep 21, 2004 08:00 PM

made a mistake...oops

Guitar 1
e|----------------------------------------------------------------------|
b|----------------------------------------------------------------------|
g|----------------------------------------------------------------------|
d|--------7------7------8------5------7--------3------5------2p0-0------|
a|------5------5------5------5------5--------3------5------0------------|
d|----0------7------8------5------7------0h3------5------0--------------|

Guitar 2
e|--------------------------------------------------------------------------------------|
b|--------------------------------------------------------------------------------------|
g|--------------------------------------------------------------------------------------|
d|----7--7------7--7------8--8------7--5------7--7------5--5------7--7h8-----0---2p0-0--|
a|---0--0--0---0--0--0---0--0--0---0--0--0---0--0--0---0--0--0---0--0--0---0------------|
d|--------------------------------------------------------------------------------------|

0 reply
Murk 10 Dec 29, 2005 11:49 AM

dude i dont think u could have ****ed it up more than u already did.This tab SUCKS nothing is right.Never ever post something on here again that u "figured out by ear" ever again....in fact never post anything on here again unless someone else tabbed it for you....someone that actually plays guitar for instance....

0 reply
Murk 10 Dec 29, 2005 11:49 AM

dude i dont think u could have ****ed it up more than u already did.This tab SUCKS nothing is right.Never ever post something on here again that u "figured out by ear" ever again....in fact never post anything on here again unless someone else tabbed it for you....someone that actually plays guitar for instance....

guest
Wanna post a correction for this tab? Suggest correction