Oops, an error
Loading. Please wait.

Remorse Is For The Dead Tab

version 2
version 2

Intro

Whole song

Interactive

2,062 views 1 this week
3 commentsread comments
1 2 3 4 5
1 last vote to show rating
add to favorites
launch autoscroll
font size
0
reset
how to read this tab
guitar tuner
×
Best way to learn
"Remorse Is For The Dead"
Autoscroll
slow
fast
+/-
esc
set tempo
stop
-------------------------------------------------------------------------------
                        Remorse Is For The Dead- Lamb Of God
-------------------------------------------------------------------------------
Tabbed by:Doug
Email:Rage16@earthlink.net

e|---------------------------------------------------------------------------|
B|---------------------------------------------------------------------------|
G|-------2---2-------2---2-------3---3-------0---0-------2---2-------0---0---|
D|-----0---0---0---0---0---0---0---0---0---0---0---0---0---0---0---0---0---0-|
A|---0-----------0-----------0-----------0-----------0-----------0-----------|
E|---------------------------------------------------------------------------|

e|---------------------------------------------------------------------------|
B|---------------------------------------------------------------------------|
G|------2----2s3------2-0---2x-repeat-------2-----2-----3-----0-----2--------|
D|----0---0------0------------------------0-----0-----0-----0-----0----------|
A|--0--------------0--------------------0-----0-----0-----0-----0------------|
E|---------------------------------------------------------------------------|

e|---------------------------------------------------------------------------|
B|---------------------------------------------------------------------------|
G|----------------------2-0--4x-repeat--2-0-2-0-2-0-2--0---------------------|
D|----0-3-----0-5-----0------------------------------------------------------|
A|--0-------0-------0--------------------------------------------------------|
E|---------------------------------------------------------------------------|

| /  slide up
| \  slide down
| h  hammer-on
| p  pull-off
| ~  vibrato
| +  harmonic
| x  Mute note
===============================================================================
Suggest correction
Give kudos to tab author, rate the tab!
1 2 3 4 5
comments
print report bad tab
3 comments total.
0 reply
Xx-Browzer-xX 10 Jun 01, 2007 08:51 AM

i like it, its not right but its fun to play, ill teach it to my gf lol.

0 reply
Xx-Browzer-xX 10 Jun 01, 2007 10:18 AM

e|---------------------------------------------------------------------------|
B|---------------------------------------------------------------------------|
G|------2----2s3------2p0-0-2x-repeat-------2-----2-----3-----0-----2--------|
D|----0---0------0------------------------0-----0-----0-----0-----0----------|
A|--0--------------0--------------------0-----0-----0-----0-----0------------|
E|---------------------------------------------------------------------------|

0 reply
Xx-Browzer-xX 10 Jun 01, 2007 10:18 AM

just thought i might point out that pull off before it repeats.

guest
You may want to rate the tab now too:
select rating
Wanna post a correction for this tab? Suggest correction