Oops, an error
Loading. Please wait.

Requiem tab

version 2
version 2

Whole song

Interactive

11,304 views 1 this week
3 commentsread comments
1 2 3 4 5
x 3
add to favorites
×
Save as Personal and add changes to this tab that will be seen only by you. Learn more ›
×
You can save this tab as Personal to edit and correct it or add notes. All changes will be seen only by you. Learn more »
launch autoscroll
font size
0
reset
how to read this tab
guitar tuner
backing track
0:00
0:00
edit
Autoscroll
slow
fast
+/-
esc
set tempo
stop
Band: Lamb Of God
Song: Requirem



Guitar # 1:


     PM       PM       PM          PM       PM       PM  
     E  E  E  E  E  E  E  E     E  E  E  E  E  E  E  E   
E||--------------------------|--------------------------|
B||--------------------------|--------------------------|
G||--------------------------|--------------------------|
D||--------------------------|--------------------------|
A||-----8--8-----8--8-----8--|--8-----8--8-----7--7-----|
D||--0--------0--------0-----|-----0--------0--------0--|


                              Rhy. Fig. 1                       
        PM       PM           PM                PM       PM     
  E  E  E  E  E  E  E   E     E           E  E  E  E  E  E  E   
---------------------------|-----------------------------------|
---------------------------|-----------------------------------|
---------------------------|-----------------------------------|
---------------------------|-----------------------------------|
--7--7-----5--5-----5s--4--|--------------8--8-----8--8-----8--|
--------0--------0---------|--0-----------------0--------0-----|


     PM       PM       PM          PM       PM         
  E  E  E  E  E  E  E  E     E  E  E  E  E  E  E   E   
--------------------------|---------------------------|
--------------------------|---------------------------|
--------------------------|---------------------------|
--------------------------|---------------------------|
--8-----8--8-----3--3-----|--6--6-----6--6-----6s--5--|
-----0--------0--1--1--0--|--4--4--0--3--3--0---------|


  E  E  E  E  E  E  E  E     E  E  E  E  E  E  E  E   
--------------------------|--------------------------|
--------------------------|--------------------------|
--------------------------|--------------------------|
--------------------------|--------------------------|
-----8--8-----8--8-----8--|--8-----8--8-----7--7-----|
--0--------0--------0-----|-----0--------0--------0--|


                                        PM          PM  
  E  E  E  E  E  E  S S S S    E   Q    E  E   Q    E   
----------------------------|--------------------------|
----------------------------|--------------------------|
----------------------------|--------------------------|
----------------------------|--------------------------|
--7--7-----5--5-------------|--3b--3-------3b--3-------|
--------0--------0--6-5-3-0-|--3b--3----0--3b--3----0--|


                      end Rhy. Fig. 1                                  
           PM PM                         PM         PM         PM      
  E   Q    E  E  Q    E                  E   E   E  E   E   E  E   E   
--------------------------------------|-------------------------------|
--------------------------------------|-------------------------------|
--------------------------------------|-------------------------------|
--------------------------------------|-----15--15-----15--15-----15--|
--3b--3----------4----4---------------|-----12--12-----12--12-----12--|
--3b--3----0--1--4----4---------------|--0--12--12--0--12--12--0--12--|


      PM         PM         PM            PM         PM           
   E  E   E   E  E   E   E  E      E   E  E   E   E  E   E    E   
-------------------------------|---------------------------------|
-------------------------------|---------------------------------|
-------------------------------|---------------------------------|
--15-----15--15-----15--15-----|--15--15-----12--12-----12s--11--|
--12-----12--12-----11--11-----|--11--11------8---8------8s---7--|
--12--0--12--12--0--11--11--0--|--11--11--0---8---8--0---8s---7--|


  PM         PM         PM            PM         PM         PM  
  E   E   E  E   E   E  E   E      E  E   E   E  E   E   E  E   
-------------------------------|-------------------------------|
-------------------------------|-------------------------------|
-------------------------------|-------------------------------|
-----15--15-----15--15-----15--|--15-----15--15-----12--12-----|
-----12--12-----12--12-----12--|--12-----12--12------8---8-----|
--0--12--12--0--12--12--0--12--|--12--0--12--12--0---8---8--0--|


             PM    PM    PH             PM         PM         PM      
  S  S  S  S E  E  E     E  E    E      E   E   E  E   E   E  E   E   
-------------------------------------|-------------------------------|
-------------------------------------|-------------------------------|
-------------------------------------|-------------------------------|
-------------------------------------|-----15--15-----15--15-----15--|
----------------7-----<>10-----------|-----12--12-----12--12-----12--|
--8p-7h-8s-7-0--7--0--------6b--(6)--|--0--12--12--0--12--12--0--12--|


      PM         PM         PM            PM         PM           
   E  E   E   E  E   E   E  E      E   E  E   E   E  E   E    E   
-------------------------------|---------------------------------|
-------------------------------|---------------------------------|
-------------------------------|---------------------------------|
--15-----15--15-----14--14-----|--14--14-----18--18-----18S--19--|
--12-----12--12-----11--11-----|--11--11-----15--15-----15S--16--|
--12--0--12--12--0--11--11--0--|--11--11--0--15--15--0--15S--16--|


           PM          PM             PM PM              PM        PM PM PM     
  E   Q    E  E   Q    E     E   Q    E  E  Q    E       E  Q.     E  E  E  E   
--------------------------|-------------------------||-------------------------|
--------------------------|-------------------------||-------------------------|
--------------------------|-------------------------||*------------------------|
--------------------------|-------------------------||*-----0---------------1--|
--3b--3-------3b--3-------|--3b--3----------4----4--||---1--0------0--0--0--1--|
--3b--3----0--3b--3----0--|--3b--3----0--1--4----4--||---1--0------0--0--0--1--|


     PM PM       PM PM          PM PM PM PM PM PM     
  E  E  E  E  E  E  E  E     E  E  E  E  E  E  E  E   
--------------------------|--------------------------|
--------------------------|--------------------------|
--------------------------|--------------------------|
--0--------1--0--------1--|--4--------------------4--|
--0--0--0--1--0--0--0--1--|--4--4--4--4--4--4--4--4--|
--0--0--0--1--0--0--0--1--|--4--4--4--4--4--4--4--4--|


     PM PM PM PM PM PM PM             PM PM PM     
  E  E  E  E  E  E  E  E     H        E  E  E  E   
--------------------------|-----------------------|
--------------------------|-----------------------|
--------------------------|-----------------------|
--1-----------------------|--0-----------------1--|
--1--1--1--1--1--1--1--1--|--0--------0--0--0--1--|
--1--1--1--1--1--1--1--1--|--0--------0--0--0--1--|


     PM PM               SH                                   
                                            |---3---|         
  E  E  E  E  E  E  E    E      E  E  E  E  E   E   E  E  E   
-----------------------------|-------------------------------|
-----------------------------|-------------------------------|
-----------------------------|----------------------------8--|
--0--------1--0--------------|----------------------------6--|
--0--0--0--1--0--------------|-------------------------------|
--0--0--0--1--0--3--6--<>7~--|--L--0--3--6--6h--7p--6--3-----|


      PM PM PM PM PM PM          PM PM       PM PM     
  E   E  E  E  E  E  E  E     E  E  E  E  E  E  E  E   
---------------------------|--------------------------|
---------------------------|--------------------------|
--L\-----------------------|--------------------------|
--L\--------------------1--|--0--------1--0--------1--|
------0--0--0--0--0--0--1--|--0--0--0--1--0--0--0--1--|
------0--0--0--0--0--0--1--|--0--0--0--1--0--0--0--1--|


     PM PM PM PM PM PM          PM PM PM PM PM PM PM             PM PM PM     
  E  E  E  E  E  E  E  E     E  E  E  E  E  E  E  E     H        E  E  E  E   
--------------------------|--------------------------|-----------------------|
--------------------------|--------------------------|-----------------------|
--------------------------|--------------------------|-----------------------|
--4--------------------4--|--1-----------------------|--0-----------------1--|
--4--4--4--4--4--4--4--4--|--1--1--1--1--1--1--1--1--|--0--------0--0--0--1--|
--4--4--4--4--4--4--4--4--|--1--1--1--1--1--1--1--1--|--0--------0--0--0--1--|


     PM PM               SH                                   
                                            |---3---|         
  E  E  E  E  E  E  E    E      E  E  E  E  E   E   E  E  E   
-----------------------------|-------------------------------|
-----------------------------|-------------------------------|
-----------------------------|-------------------------------|
--0--------1--0--------------|----------------------------8--|
--0--0--0--1--0--------------|----------------------------6--|
--0--0--0--1--0--3--6--<>7~--|--L--0--3--6--6h--7p--6--0-----|


  E   E  E  E  E  E  E  E     E  E  E  E  E  E  E  E    
---------------------------|---------------------------|
---------------------------|---------------------------|
---------------------------|---------------------------|
--L\--1--1--1--1--1--1--1--|--1--1--1--1--1--1--1--1S--|
--L\--1--1--1--1--1--1--1--|--1--1--1--1--1--1--1--1S--|
------1--1--1--1--1--1--1--|--1--1--1--1--1--1--1--1S--|


                          SH                                 
  E  E  E  E  E  E   E    E      E   E  E   E   E  E  E  E   
------------------------------|-----------------------------|
------------------------------|-----------------------------|
------------------------------|-----------------------------|
--4--4--4--4--4---------------|-----------------------------|
--4--4--4--4--4--6--10--------|---------6------10--6--9--5--|
--4--4--4--4--4---------<>9~--|--L--10-----10------------0--|


           PM       PM          PM       PM       PM  
  E  E  E  E  E  E  E  E     E  E  E  E  E  E  E  E   
--------------------------|--------------------------|
--------------------------|--------------------------|
--------------------------|--------------------------|
--------------------------|--------------------------|
--L--8--8-----8--8-----8--|--8-----8--8-----7--7-----|
--L--------0--------0-----|-----0--------0--------0--|


        PM       PM           PM       PM       PM     
  E  E  E  E  E  E  E   E     E  E  E  E  E  E  E  E   
---------------------------|--------------------------|
---------------------------|--------------------------|
---------------------------|--------------------------|
---------------------------|--------------------------|
--7--7-----5--5-----5s--4--|-----8--8-----8--8-----8--|
--------0--------0---------|--0--------0--------0-----|


     PM       PM       PM          PM       PM         
  E  E  E  E  E  E  E  E     E  E  E  E  E  E  E   E   
--------------------------|---------------------------|
--------------------------|---------------------------|
--------------------------|---------------------------|
--------------------------|---------------------------|
--8-----8--8-----3--3-----|--6--6-----6--6-----6s--5--|
-----0--------0--1--1--0--|--4--4--0--3--3--0---------|


  E  E  E  E  E  E  E  E     E  E  E  E  E  E  E  E   
--------------------------|--------------------------|
--------------------------|--------------------------|
--------------------------|--------------------------|
--------------------------|--------------------------|
-----8--8-----8--8-----8--|--8-----8--8-----7--7-----|
--0--------0--------0-----|-----0--------0--------0--|


                                        PM          PM  
  E  E  E  E  E  E  S S S S    E   Q    E  E   Q    E   
----------------------------|--------------------------|
----------------------------|--------------------------|
----------------------------|--------------------------|
----------------------------|--------------------------|
--7--7-----5--5-------------|--3b--3-------3b--3-------|
--------0--------0--6-5-3-0-|--3b--3----0--3b--3----0--|


           PM PM              PM PM PM PM PM PM PM PM  
  E   Q    E  E  Q    E       E  E  E  E  E  E  E  E   
--------------------------||--------------------------|
--------------------------||--------------------------|
-------------------------*||--------------------------|
-------------------------*||--------------------------|
--3b--3----------4----4---||--2--1--0--4--3--0--1--0--|
--3b--3----0--1--4----4---||--2--1--0--4--3--0--1--0--|


  PM PM PM PM PM    PM       PM   PM   PM   PM   PM   PM    
                             |----3----|    |----3----|     
  E  E  E  E  E  E  E  E     Q    Q    Q    Q    Q    Q     
--------------------------|--------------------------------|
--------------------------|--------------------------------|
--------------------------|--------------------------------|
-----------------3-----6--|--------------------------------|
--4--3--0--1--0--3--0--6--|--0----0----0----0----0----0----|
--4--3--0--1--0--3--0--6--|--0----0----0----0----0----0----|


  PM   PM   PM   PM   PM   PM      PM   PM   PM   PM   PM   PM    
  |----3----|    |----3----|       |----3----|    |----3----|     
  Q    Q    Q    Q    Q    Q       Q    Q    Q    Q    Q    Q     
--------------------------------|--------------------------------|
--------------------------------|--------------------------------|
--------------------------------|--------------------------------|
--------------------------------|--------------------------------|
--0----0----0----0----0----0----|--0----0----0----0----0----0----|
--0----0----0----0----0----0----|--0----0----0----0----0----0----|


  PM   PM   PM   PM   PM   PM      PM   PM   PM   PM   PM   PM    
  |----3----|    |----3----|       |----3----|    |----3----|     
  Q    Q    Q    Q    Q    Q       Q    Q    Q    Q    Q    Q     
--------------------------------|--------------------------------|
--------------------------------|--------------------------------|
--------------------------------|--------------------------------|
--------------------------------|--------------------------------|
--0----0----0----0----0----0----|--0----0----0----0----0----0----|
--0----0----0----0----0----0----|--0----0----0----0----0----0----|


  PM   PM   PM   PM   PM   PM      PM   PM   PM   PM   PM   PM    
  |----3----|    |----3----|       |----3----|    |----3----|     
  Q    Q    Q    Q    Q    Q       Q    Q    Q    Q    Q    Q     
--------------------------------|--------------------------------|
--------------------------------|--------------------------------|
--------------------------------|--------------------------------|
--------------------------------|--------------------------------|
--0----0----0----0----0----0----|--0----0----0----0----0----0----|
--0----0----0----0----0----0----|--0----0----0----0----0----0----|


                                     Rhy. Fig. 2                           
  PM   PM   PM   PM   PM   PM        PM          PM   PM   PM   PM   PM    
  |----3----|    |----3----|         |--------3-------|    |----3----|     
  Q    Q    Q    Q    Q    Q         Q           Q    Q    Q    Q    Q     
--------------------------------||----------------------------------------|
--------------------------------||----------------------------------------|
--------------------------------||*---------------------------------------|
--------------------------------||*---------------------------------------|
--0----0----0----0----0----0----||---9-----------9----9----9----9----9----|
--0----0----0----0----0----0----||---0-----------0----0----0----0----0----|


  PM   PM   PM   PM   PM   PM      PM   PM   PM   PM   PM   PM    
  |----3----|    |----3----|       |----3----|    |----3----|     
  Q    Q    Q    Q    Q    Q       Q    Q    Q    Q    Q    Q     
--------------------------------|--------------------------------|
--------------------------------|--------------------------------|
--------------------------------|--------------------------------|
--------------------------------|--------------------------------|
--6----6----6----6----6----6----|--8----8----8----8----8----8----|
--0----0----0----0----0----0----|--0----0----0----0----0----0----|


                           End Rhy. Fig. 2                                     
  PM   PM   PM   PM   PM   PM                   PM   PM   PM   PM   PM   PM    
  |----3----|    |----3----|                    |----3----|    |----3----|     
  Q    Q    Q    Q    Q    Q                3x  Q    Q    Q    Q    Q    Q     
--------------------------------------------||--------------------------------|
--------------------------------------------||--------------------------------|
-------------------------------------------*||--------------------------------|
-------------------------------------------*||--------------------------------|
--8----8----8----8----8----8----------------||--9----9----9----9----9----9----|
--0----0----0----0----0----0----------------||--0----0----0----0----0----0----|


  PM   PM   PM   PM   PM   PM      PM   PM   PM   PM   PM   PM    
  |----3----|    |----3----|       |----3----|    |----3----|     
  Q    Q    Q    Q    Q    Q       Q    Q    Q    Q    Q    Q     
--------------------------------|--------------------------------|
--------------------------------|--------------------------------|
--------------------------------|--------------------------------|
--------------------------------|--------------------------------|
--6----6----6----6----6----6----|--5----5----5----5----5----5----|
--0----0----0----0----0----0----|--0----0----0----0----0----0----|


  PM   PM   PM   PM   PM   PM      PM PM PM PM PM PM          PM PM PM PM  
  |----3----|    |----3----|       |--3--|  |--3--|  |----3---|  |--3--|   
  Q    Q    Q    Q    Q    Q       E  E  E  E  E  E  S  S  E  E  E  E  E   
--------------------------------|-----------------------------------------|
--------------------------------|-----------------------------------------|
--------------------------------|-----------------------------------------|
--------------------------------|--------------------2h-3p-2--------------|
--5----5----5----5----5----5----|-----------------------------------------|
--0----0----0----0----0----0----|--3--3--3--3--3--3-----------3--3--3--3--|


           PM PM PM PM                    
  |----3---|  |--3--|  |--3--|  |--3--|   
  S  S  E  E  E  E  E  E  E  E  E  E  E   
-----------------------------------------|
-----------------------------------------|
-----------------------------------------|
--2h-3p-2-----------------2-----2--------|
-----------------------4-----4-----4--3--|
-----------3--3--3--3--------------------|


  PM PM PM PM PM PM          PM PM PM PM  
  |--3--|  |--3--|  |----3---|  |--3--|   
  E  E  E  E  E  E  S  S  E  E  E  E  E   
-----------------------------------------|
-----------------------------------------|
-----------------------------------------|
--------------------2h-3p-2--------------|
-----------------------------------------|
--3--3--3--3--3--3-----------3--3--3--3--|


                                      End Riff A  
           PM PM PM PM                            
  |----3---|  |--3--|  |--3--|  |--3--|           
  S  S  E  E  E  E  E  E  E  E  E  E  E           
-------------------------------------------------|
-------------------------------------------------|
-------------------------------------------------|
--2h-3p-2-----------------2-----2----------------|
-----------------------4-----4-----4--3----------|
-----------3--3--3--3----------------------------|


  PM PM PM PM PM PM          PM PM PM PM  
  |--3--|  |--3--|  |----3---|  |--3--|   
  E  E  E  E  E  E  S  S  E  E  E  E  E   
-----------------------------------------|
-----------------------------------------|
-----------------------------------------|
--------------------2h-3p-2--------------|
-----------------------------------------|
--3--3--3--3--3--3-----------3--3--3--3--|


           PM PM PM PM                    
  |----3---|  |--3--|  |--3--|  |--3--|   
  S  S  E  E  E  E  E  E  E  E  E  E  E   
-----------------------------------------|
-----------------------------------------|
-----------------------------------------|
--2h-3p-2-----------------2-----2--------|
-----------------------4-----4-----4--3--|
-----------3--3--3--3--------------------|


  PM PM PM PM PM PM          PM PM PM PM  
  |--3--|  |--3--|  |----3---|  |--3--|   
  E  E  E  E  E  E  S  S  E  E  E  E  E   
-----------------------------------------|
-----------------------------------------|
-----------------------------------------|
--------------------2h-3p-2--------------|
-----------------------------------------|
--3--3--3--3--3--3-----------3--3--3--3--|


             PM PM PM                        PM   PM   PM   PM   PM   PM    
  |---3---|  |--3--|  |--3--|  |--3--|       |----3----|    |----3----|     
  E   E   E  E  E  E  E  E  E  E  E  E       Q    Q    Q    Q    Q    Q     
----------------------------------------||---------------------------------|
----------------------------------------||---------------------------------|
----------------------------------------||*--------------------------------|
--2h--3p--2--------------2-----2--------||*--------------------------------|
----------------------4-----4-----4--3--||---9----9----9----9----9----9----|
-------------3--3--3--------------------||---0----0----0----0----0----0----|


  PM   PM   PM   PM   PM   PM      PM   PM   PM   PM   PM   PM    
  |----3----|    |----3----|       |----3----|    |----3----|     
  Q    Q    Q    Q    Q    Q       Q    Q    Q    Q    Q    Q     
--------------------------------|--------------------------------|
--------------------------------|--------------------------------|
--------------------------------|--------------------------------|
--------------------------------|--------------------------------|
--6----6----6----6----6----6----|--8----8----8----8----8----8----|
--0----0----0----0----0----0----|--0----0----0----0----0----0----|


  PM   PM   PM   PM   PM   PM                                             
  |----3----|    |----3----|         |--3--|  |--3--|  |--3--|  |--3--|   
  Q    Q    Q    Q    Q    Q     3x  E  E  E  E  E  E  E  E  E  E  E  E   
---------------------------------||--------------------------------------|
---------------------------------||--------------------------------------|
--------------------------------*||--------------------------------------|
--------------------------------*||--------------------------------------|
--8----8----8----8----8----8-----||--5--5--5--5--5--5--5--5--5--5--5--5--|
--0----0----0----0----0----0-----||--0--0--0--0--0--0--0--0--0--0--0--0--|


  |--3--|  |--3--|  |--3--|  |--3--|   
  E  E  E  E  E  E  E  E  E  E  E  E   
--------------------------------------|
--------------------------------------|
--------------------------------------|
--------------------------------------|
--5--5--5--5--5--5--5--5--5--5--5--5--|
--0--0--0--0--0--0--0--0--0--0--0--0--|


  PM PM PM PM PM PM          PM PM PM PM  
  |--3--|  |--3--|  |----3---|  |--3--|   
  E  E  E  E  E  E  S  S  E  E  E  E  E   
-----------------------------------------|
-----------------------------------------|
-----------------------------------------|
--------------------2h-3p-2--------------|
-----------------------------------------|
--3--3--3--3--3--3-----------3--3--3--3--|


           PM PM PM PM                    
  |----3---|  |--3--|  |--3--|  |--3--|   
  S  S  E  E  E  E  E  E  E  E  E  E  E   
-----------------------------------------|
-----------------------------------------|
-----------------------------------------|
--2h-3p-2-----------------2-----2--------|
-----------------------4-----4-----4--3--|
-----------3--3--3--3--------------------|


  PM PM PM PM PM PM          PM PM PM PM  
  |--3--|  |--3--|  |----3---|  |--3--|   
  E  E  E  E  E  E  S  S  E  E  E  E  E   
-----------------------------------------|
-----------------------------------------|
-----------------------------------------|
--------------------2h-3p-2--------------|
-----------------------------------------|
--3--3--3--3--3--3-----------3--3--3--3--|


           PM PM PM PM                    
  |----3---|  |--3--|  |--3--|  |--3--|   
  S  S  E  E  E  E  E  E  E  E  E  E  E   
-----------------------------------------|
-----------------------------------------|
-----------------------------------------|
--2h-3p-2-----------------2-----2--------|
-----------------------4-----4-----4--3--|
-----------3--3--3--3--------------------|


  PM PM PM PM PM PM          PM PM PM PM  
  |--3--|  |--3--|  |----3---|  |--3--|   
  E  E  E  E  E  E  S  S  E  E  E  E  E   
-----------------------------------------|
-----------------------------------------|
-----------------------------------------|
--------------------2h-3p-2--------------|
-----------------------------------------|
--3--3--3--3--3--3-----------3--3--3--3--|


           PM PM PM PM                    
  |----3---|  |--3--|  |--3--|  |--3--|   
  S  S  E  E  E  E  E  E  E  E  E  E  E   
-----------------------------------------|
-----------------------------------------|
-----------------------------------------|
--2h-3p-2-----------------2-----2--------|
-----------------------4-----4-----4--3--|
-----------3--3--3--3--------------------|


  PM PM PM PM PM PM          PM PM PM PM  
  |--3--|  |--3--|  |----3---|  |--3--|   
  E  E  E  E  E  E  S  S  E  E  E  E  E   
-----------------------------------------|
-----------------------------------------|
-----------------------------------------|
--------------------2h-3p-2--------------|
-----------------------------------------|
--3--3--3--3--3--3-----------3--3--3--3--|


           PM PM PM PM                    
  |----3---|  |--3--|  |--3--|  |--3--|   
  S  S  E  E  E  E  E  E  E  E  E  E  E   
-----------------------------------------|
-----------------------------------------|
-----------------------------------------|
--2h-3p-2-----------------2-----2--------|
-----------------------4-----4-----4--3--|
-----------3--3--3--3--------------------|


  Riff B                                      
  PM     PM PM PM PM PM          PM PM PM PM  
  |----3----|  |--3--|  |----3---|  |--3--|   
  E      E  E  E  E  E  S  S  E  E  E  E  E   
---------------------------------------------|
---------------------------------------------|
---------------------------------------------|
---------------------------------------------|
------------------------5h-6p-5--------------|
--0------0--0--0--0--0-----------0--0--0--0--|


           PM PM PM PM                     
  |----3---|  |--3--|  |--3--|  |---3--|   
  S  S  E  E  E  E  E  E  E  E  E  E   E   
------------------------------------------|
------------------------------------------|
------------------------------------------|
------------------------------------------|
--5h-6p-5-----------------4-----4---------|
-----------0--0--0--0--8-----8-----8p--7--|


  PM PM PM PM PM PM          PM PM PM PM  
  |--3--|  |--3--|  |----3---|  |--3--|   
  E  E  E  E  E  E  S  S  E  E  E  E  E   
-----------------------------------------|
-----------------------------------------|
-----------------------------------------|
-----------------------------------------|
--------------------5h-6p-5--------------|
--0--0--0--0--0--0-----------0--0--0--0--|


                                       End Riff B  
           PM PM PM PM                             
  |----3---|  |--3--|  |--3--|  |---3--|           
  S  S  E  E  E  E  E  E  E  E  E  E   E           
--------------------------------------------------|
--------------------------------------------------|
--------------------------------------------------|
--------------------------------------------------|
--5h-6p-5-----------------4-----4-----------------|
-----------0--0--0--0--8-----8-----8p--7----------|


  PM PM PM PM PM PM          PM PM PM PM  
  |--3--|  |--3--|  |----3---|  |--3--|   
  E  E  E  E  E  E  S  S  E  E  E  E  E   
-----------------------------------------|
-----------------------------------------|
-----------------------------------------|
-----------------------------------------|
--------------------5h-6p-5--------------|
--0--0--0--0--0--0-----------0--0--0--0--|


           PM PM PM PM                     
  |----3---|  |--3--|  |--3--|  |---3--|   
  S  S  E  E  E  E  E  E  E  E  E  E   E   
------------------------------------------|
------------------------------------------|
------------------------------------------|
------------------------------------------|
--5h-6p-5-----------------4-----4---------|
-----------0--0--0--0--8-----8-----8p--7--|


  PM PM PM PM PM PM          PM PM PM PM  
  |--3--|  |--3--|  |----3---|  |--3--|   
  E  E  E  E  E  E  S  S  E  E  E  E  E   
-----------------------------------------|
-----------------------------------------|
-----------------------------------------|
-----------------------------------------|
--------------------5h-6p-5--------------|
--0--0--0--0--0--0-----------0--0--0--0--|


           PM PM PM PM                     
  |----3---|  |--3--|  |--3--|  |---3--|   
  S  S  E  E  E  E  E  E  E  E  E  E   E   
------------------------------------------|
------------------------------------------|
------------------------------------------|
------------------------------------------|
--5h-6p-5-----------------4-----4---------|
-----------0--0--0--0--8-----8-----8p--7--|


                                                            PM PM PM PM         
  |--3--|  |--3--|  |--3--|  |--3--|     |---3--|  |--3--|  |--3--|  |---3--|   
  E  E  E  E  E  E  E  E  E  E  E  E     E   E  E  E  E  E  E  E  E  E  E   E   
--------------------------------------|----------------------------------------|
--------------------------------------|----------------------------------------|
--------------------------------------|----------------------------------------|
--1--1--1--1--1--1--1--1--1--1--1--1--|--1s--4--4--4--4--4---------------------|
--1--1--1--1--1--1--1--1--1--1--1--1--|--1s--4--4--4--4--4-----4-----4---------|
--1--1--1--1--1--1--1--1--1--1--1--1--|--1s--4--4--4--4--4--8-----8-----8p--7--|


  PM PM PM PM PM PM          PM PM PM PM  
  |--3--|  |--3--|  |----3---|  |--3--|   
  E  E  E  E  E  E  S  S  E  E  E  E  E   
-----------------------------------------|
-----------------------------------------|
-----------------------------------------|
-----------------------------------------|
--------------------5h-6p-5--------------|
--0--0--0--0--0--0-----------0--0--0--0--|


           PM PM PM PM PM PM PM PM         
  |----3---|  |--3--|  |--3--|  |---3--|   
  S  S  E  E  E  E  E  E  E  E  E  E   E   
------------------------------------------|
------------------------------------------|
------------------------------------------|
------------------------------------------|
--5h-6p-5-----------------4-----4---------|
-----------0--0--0--0--8-----8-----8p--7--|


  |--3--|  |--3--|  |--3--|  |--3--|   
  E  E  E  E  E  E  E  E  E  E  E  E   
--------------------------------------|
--------------------------------------|
--------------------------------------|
--1--1--1--1--1--1--1--1--1--1--1--1--|
--1--1--1--1--1--1--1--1--1--1--1--1--|
--1--1--1--1--1--1--1--1--1--1--1--1--|


                          PM PM           
  |---3--|  |--3--|   |---3--|  |--3--|   
  E   E  E  E  E  E   E   E  E  E  E  E   
-----------------------------------------|
-----------------------------------------|
-----------------------------------------|
--1s--4--4--4--4--4-------------5-----5--|
--1s--4--4--4--4--4--/6------------6-----|
--1s--4--4--4--4--4------10--9-----------|


  Rhy. Fig. 3                                   
  |-------3------|  |--3--|  |--3--|  |--3--|   
  E           E  E  E  E  E  E  E  E  E  E  E   
-----------------------------------------------|
-----------------------------------------------|
-----------------------------------------------|
--0-----------0--0--0--0--0--0--0--0--0--0--0--|
--0-----------0--0--0--0--0--0--0--0--0--0--0--|
--0-----------0--0--0--0--0--0--0--0--0--0--0--|


  |--3--|  |--3--|  |--3--|  |--3--|     |--3--|  |--3--|  |--3--|  |--3--|   
  E  E  E  E  E  E  E  E  E  E  E  E     E  E  E  E  E  E  E  E  E  E  E  E   
--------------------------------------|--------------------------------------|
--------------------------------------|--------------------------------------|
--------------------------------------|--------------------------------------|
--0--0--0--0--0--0--0--0--0--0--0--0--|--------------------------------------|
--0--0--0--0--0--0--0--0--0--0--0--0--|--------------------------------------|
--0--0--0--0--0--0--0--0--0--0--0--0--|--0--0--0--0--0--0--0--0--0--0--0--0--|


  |--3--|  |--3--|  |--3--|  |--3--|     |--3--|  |--3--|  |--3--|  |--3--|   
  E  E  E  E  E  E  E  E  E  E  E  E     E  E  E  E  E  E  E  E  E  E  E  E   
--------------------------------------|--------------------------------------|
--------------------------------------|--------------------------------------|
--------------------------------------|--------------------------------------|
--------------------------------------|--0--0--0--0--0--0--0--0--0--0--0--0--|
--------------------------------------|--0--0--0--0--0--0--0--0--0--0--0--0--|
--0--0--0--0--0--0--0--0--0--0--0--0--|--0--0--0--0--0--0--0--0--0--0--0--0--|


  |--3--|  |--3--|  |--3--|  |--3--|     |--3--|  |--3--|  |--3--|  |--3--|   
  E  E  E  E  E  E  E  E  E  E  E  E     E  E  E  E  E  E  E  E  E  E  E  E   
--------------------------------------|--------------------------------------|
--------------------------------------|--------------------------------------|
--------------------------------------|--------------------------------------|
--0--0--0--0--0--0--0--0--0--0--0--0--|--0--0--0--0--0--0--0--0--0--0--0--0--|
--0--0--0--0--0--0--0--0--0--0--0--0--|--0--0--0--0--0--0--0--0--0--0--0--0--|
--0--0--0--0--0--0--0--0--0--0--0--0--|--0--0--0--0--0--0--0--0--0--0--0--0--|


                                            End Rhy. Fig. 3  
           PM          PM          PM                        
  |----3---|  |----3---|  |----3---|  |--3--|                
  S  S  E  E  S  S  E  E  S  S  E  E  E  E  E                
------------------------------------------------------------|
------------------------------------------------------------|
------------------------------------------------------------|
------------------------------------------------------------|
-----------------------------------------3--3---------------|
--3h-4p-3--0--3h-4p-3--0--3h-4p-3--0--6---------------------|


  |--3--|  |--3--|  |--3--|  |--3--|     |--3--|  |--3--|  |--3--|  |--3--|   
  E  E  E  E  E  E  E  E  E  E  E  E     E  E  E  E  E  E  E  E  E  E  E  E   
--------------------------------------|--------------------------------------|
--------------------------------------|--------------------------------------|
--------------------------------------|--------------------------------------|
--0--0--0--0--0--0--0--0--0--0--0--0--|--0--0--0--0--0--0--0--0--0--0--0--0--|
--0--0--0--0--0--0--0--0--0--0--0--0--|--0--0--0--0--0--0--0--0--0--0--0--0--|
--0--0--0--0--0--0--0--0--0--0--0--0--|--0--0--0--0--0--0--0--0--0--0--0--0--|


  |--3--|  |--3--|  |--3--|  |--3--|     |--3--|  |--3--|  |--3--|  |--3--|   
  E  E  E  E  E  E  E  E  E  E  E  E     E  E  E  E  E  E  E  E  E  E  E  E   
--------------------------------------|--------------------------------------|
--------------------------------------|--------------------------------------|
--------------------------------------|--------------------------------------|
--------------------------------------|--------------------------------------|
--------------------------------------|--------------------------------------|
--0--0--0--0--0--0--0--0--0--0--0--0--|--0--0--0--0--0--0--0--0--0--0--0--0--|


  |--3--|  |--3--|  |--3--|  |--3--|     |--3--|  |--3--|  |--3--|  |--3--|   
  E  E  E  E  E  E  E  E  E  E  E  E     E  E  E  E  E  E  E  E  E  E  E  E   
--------------------------------------|--------------------------------------|
--------------------------------------|--------------------------------------|
--------------------------------------|--------------------------------------|
--0--0--0--0--0--0--0--0--0--0--0--0--|--0--0--0--0--0--0--0--0--0--0--0--0--|
--0--0--0--0--0--0--0--0--0--0--0--0--|--0--0--0--0--0--0--0--0--0--0--0--0--|
--0--0--0--0--0--0--0--0--0--0--0--0--|--0--0--0--0--0--0--0--0--0--0--0--0--|


  |--3--|  |--3--|  |--3--|  |--3--|   
  E  E  E  E  E  E  E  E  E  E  E  E   
--------------------------------------|
--------------------------------------|
--------------------------------------|
--0--0--0--0--0--0--0--0--0--0--0--0--|
--0--0--0--0--0--0--0--0--0--0--0--0--|
--0--0--0--0--0--0--0--0--0--0--0--0--|


           PM          PM          PM           
  |----3---|  |----3---|  |----3---|  |--3--|   
  S  S  E  E  S  S  E  E  S  S  E  E  E  E  E   
-----------------------------------------------|
-----------------------------------------------|
-----------------------------------------------|
-----------------------------------------------|
-----------------------------------------3--3--|
--3h-4p-3--0--3h-4p-3--0--3h-4p-3--0--6--------|


  |--3--|  |--3--|  |--3--|  |--3--|   
  E  E  E  E  E  E  E  E  E  E  E  E   
--------------------------------------|
--------------------------------------|
--------------------------------------|
--1--1--1--1--1--1--1--1--1--1--1--1--|
--1--1--1--1--1--1--1--1--1--1--1--1--|
--1--1--1--1--1--1--1--1--1--1--1--1--|


  Rhy. Fig. 4                                         
                                      PM              
  |-------3------|  |--3--|  |----3---|  |----3---|   
  E           E  E  E  E  E  S  S  E  E  S  S  E  E   
-----------------------------------------------------|
-----------------------------------------------------|
-----------------------------------------------------|
--1s----------4--4--4--4--4--------------------------|
--1s----------4--4--4--4--4--------------------------|
--1s----------4--4--4--4--4--3h-4p-3--0--3h-4p-3--1--|


  PM PM PM PM PM PM PM PM PM PM PM PM  
  |--3--|  |--3--|  |--3--|  |--3--|   
  E  E  E  E  E  E  E  E  E  E  E  E   
--------------------------------------|
--------------------------------------|
--------------------------------------|
--------------------------------------|
--------------------------------------|
--0--0--0--0--0--0--0--0--0--0--0--0--|


   |---3---|   |---3---|    |---3---|   |---3---|    
   E   E   E   E   E   E    E   E   E   E   E   E    
----------------------------------------------------|
----------------------------------------------------|
----------------------------------------------------|
--15--15--15--15--15--15-------15--15--15--15--15S--|
--12--12--12--12--12--12s--11--11--11--11--11--11S--|
--12--12--12--12--12--12s--11--11--11--11--11--11S--|


                                   End Rhy. Fig. 4  
  |--3--|  |--3--|  |--3--|  |--3--|                
  E  E  E  E  E  E  E  E  E  E  E  E                
---------------------------------------------------|
---------------------------------------------------|
---------------------------------------------------|
--1--1--1--1--1--1--1--1--1--1--1--1---------------|
--1--1--1--1--1--1--1--1--1--1--1--1---------------|
--1--1--1--1--1--1--1--1--1--1--1--1---------------|


                             PM              
  |--3--|  |--3--|  |----3---|  |----3---|   
  E  E  E  E  E  E  S  S  E  E  S  S  E  E   
--------------------------------------------|
--------------------------------------------|
--------------------------------------------|
--1--4--4--4--4--4--------------------------|
--1--4--4--4--4--4--------------------------|
--1--4--4--4--4--4--3h-4p-3--1--3h-4p-3--1--|


        PM PM PM PM PM PM PM PM PM PM  
  |--3--|  |--3--|  |--3--|  |--3--|   
  E  E  E  E  E  E  E  E  E  E  E  E   
--------------------------------------|
--------------------------------------|
--------------------------------------|
--------------------------------------|
--------------------------------------|
--0--0--0--0--0--0--0--0--0--0--0--0--|


   |---3---|   |---3---|   |---3---|   |---3---|   
   E   E   E   E   E   E   E   E   E   E   E   E   
--------------------------------------------------|
--------------------------------------------------|
--------------------------------------------------|
--12--12--12--12--12--12------12--12--12--12--12--|
---8---8---8---8---8---8s--7---7---7---7---7---7--|
---8---8---8---8---8---8s--7---7---7---7---7---7--|


  |--3--|  |--3--|  |--3--|  |--3--|   
  E  E  E  E  E  E  E  E  E  E  E  E   
--------------------------------------|
--------------------------------------|
--------------------------------------|
--1--1--1--1--1--1--1--1--1--1--1--1--|
--1--1--1--1--1--1--1--1--1--1--1--1--|
--1--1--1--1--1--1--1--1--1--1--1--1--|


                              PM              
  |---3--|  |--3--|  |----3---|  |----3---|   
  E   E  E  E  E  E  S  S  E  E  S  S  E  E   
---------------------------------------------|
---------------------------------------------|
---------------------------------------------|
--1s--4--4--4--4--4--------------------------|
--1s--4--4--4--4--4--------------------------|
--1s--4--4--4--4--4--3h-4p-3--0--3h-4p-3--1--|


  PM PM PM PM PM PM PM PM PM PM PM PM  
  |--3--|  |--3--|  |--3--|  |--3--|   
  E  E  E  E  E  E  E  E  E  E  E  E   
--------------------------------------|
--------------------------------------|
--------------------------------------|
--------------------------------------|
--------------------------------------|
--0--0--0--0--0--0--0--0--0--0--0--0--|


   |---3---|   |---3---|    |---3---|   |---3---|    
   E   E   E   E   E   E    E   E   E   E   E   E    
----------------------------------------------------|
----------------------------------------------------|
----------------------------------------------------|
--15--15--15--15--15--15-------15--15--15--15--15S--|
--12--12--12--12--12--12s--11--11--11--11--11--11S--|
--12--12--12--12--12--12s--11--11--11--11--11--11S--|


  |--3--|  |--3--|  |--3--|  |--3--|   
  E  E  E  E  E  E  E  E  E  E  E  E   
--------------------------------------|
--------------------------------------|
--------------------------------------|
--1--1--1--1--1--1--1--1--1--1--1--1--|
--1--1--1--1--1--1--1--1--1--1--1--1--|
--1--1--1--1--1--1--1--1--1--1--1--1--|


                              PM                PM   PM   PM   PM   PM   PM    
  |---3--|  |--3--|  |----3---|  |----3---|     |----3----|    |----3----|     
  E   E  E  E  E  E  S  S  E  E  S  S  E  E     Q    Q    Q    Q    Q    Q     
---------------------------------------------|--------------------------------|
---------------------------------------------|--------------------------------|
---------------------------------------------|--------------------------------|
--1s--4--4--4--4--4--------------------------|--------------------------------|
--1s--4--4--4--4--4--------------------------|--0----0----0----0----0----0----|
--1s--4--4--4--4--4--3h-4p-3--1--3h-4p-3--1--|--0----0----0----0----0----0----|


  PM   PM   PM   PM   PM   PM      PM                    
  |----3----|    |----3----|                             
  Q    Q    Q    Q    Q    Q       E  E  Q    H          
--------------------------------|----------------------||
--------------------------------|----------------------||
--------------------------------|----------------------||
--------------------------------|----------------------||
--0----0----0----0----0----0----|--0-------------------||
--0----0----0----0----0----0----|--0-------------------||










Guitar # 2:


     PM       PM       PM          PM       PM       PM  
     E  E  E  E  E  E  E  E     E  E  E  E  E  E  E  E   
E||--------------------------|--------------------------|
B||--------------------------|--------------------------|
G||--------------------------|--------------------------|
D||--------------------------|--------------------------|
A||-----8--8-----8--8-----8--|--8-----8--8-----7--7-----|
D||--0--------0--------0-----|-----0--------0--------0--|


                              Rhy. Fig. 1                       
        PM       PM           PM                PM       PM     
  E  E  E  E  E  E  E   E     E           E  E  E  E  E  E  E   
---------------------------|-----------------------------------|
---------------------------|-----------------------------------|
---------------------------|-----------------------------------|
---------------------------|-----------------------------------|
--7--7-----5--5-----5s--4--|--------------8--8-----8--8-----8--|
--------0--------0---------|--0-----------------0--------0-----|


     PM       PM       PM          PM       PM         
  E  E  E  E  E  E  E  E     E  E  E  E  E  E  E   E   
--------------------------|---------------------------|
--------------------------|---------------------------|
--------------------------|---------------------------|
--------------------------|---------------------------|
--8-----8--8-----3--3-----|--6--6-----6--6-----6s--5--|
-----0--------0--1--1--0--|--4--4--0--3--3--0---------|


  E  E  E  E  E  E  E  E     E  E  E  E  E  E  E  E   
--------------------------|--------------------------|
--------------------------|--------------------------|
--------------------------|--------------------------|
--------------------------|--------------------------|
-----8--8-----8--8-----8--|--8-----8--8-----7--7-----|
--0--------0--------0-----|-----0--------0--------0--|


                                        PM          PM  
  E  E  E  E  E  E  S S S S    E   Q    E  E   Q    E   
----------------------------|--------------------------|
----------------------------|--------------------------|
----------------------------|--------------------------|
----------------------------|--------------------------|
--7--7-----5--5-------------|--3b--3-------3b--3-------|
--------0--------0--6-5-3-0-|--3b--3----0--3b--3----0--|


                      end Rhy. Fig. 1                                  
           PM PM                         PM         PM         PM      
  E   Q    E  E  Q    E                  E   E   E  E   E   E  E   E   
--------------------------------------|-------------------------------|
--------------------------------------|-------------------------------|
--------------------------------------|-------------------------------|
--------------------------------------|-----15--15-----15--15-----15--|
--3b--3----------4----4---------------|-----12--12-----12--12-----12--|
--3b--3----0--1--4----4---------------|--0--12--12--0--12--12--0--12--|


      PM         PM         PM            PM         PM           
   E  E   E   E  E   E   E  E      E   E  E   E   E  E   E    E   
-------------------------------|---------------------------------|
-------------------------------|---------------------------------|
-------------------------------|---------------------------------|
--15-----15--15-----15--15-----|--15--15-----12--12-----12s--11--|
--12-----12--12-----11--11-----|--11--11------8---8------8s---7--|
--12--0--12--12--0--11--11--0--|--11--11--0---8---8--0---8s---7--|


  PM         PM         PM            PM         PM         PM  
  E   E   E  E   E   E  E   E      E  E   E   E  E   E   E  E   
-------------------------------|-------------------------------|
-------------------------------|-------------------------------|
-------------------------------|-------------------------------|
-----15--15-----15--15-----15--|--15-----15--15-----12--12-----|
-----12--12-----12--12-----12--|--12-----12--12------8---8-----|
--0--12--12--0--12--12--0--12--|--12--0--12--12--0---8---8--0--|


             PM    PM    PH             PM         PM         PM      
  S  S  S  S E  E  E     E  E    E      E   E   E  E   E   E  E   E   
-------------------------------------|-------------------------------|
-------------------------------------|-------------------------------|
-------------------------------------|-------------------------------|
-------------------------------------|-----15--15-----15--15-----15--|
----------------7-----<>10-----------|-----12--12-----12--12-----12--|
--8p-7h-8s-7-0--7--0--------6b--(6)--|--0--12--12--0--12--12--0--12--|


      PM         PM         PM            PM         PM           
   E  E   E   E  E   E   E  E      E   E  E   E   E  E   E    E   
-------------------------------|---------------------------------|
-------------------------------|---------------------------------|
-------------------------------|---------------------------------|
--15-----15--15-----14--14-----|--14--14-----18--18-----18S--19--|
--12-----12--12-----11--11-----|--11--11-----15--15-----15S--16--|
--12--0--12--12--0--11--11--0--|--11--11--0--15--15--0--15S--16--|


           PM          PM             PM PM              PM        PM PM PM     
  E   Q    E  E   Q    E     E   Q    E  E  Q    E       E  Q.     E  E  E  E   
--------------------------|-------------------------||-------------------------|
--------------------------|-------------------------||-------------------------|
--------------------------|-------------------------||*------------------------|
--------------------------|-------------------------||*-----0---------------1--|
--3b--3-------3b--3-------|--3b--3----------4----4--||---1--0------0--0--0--1--|
--3b--3----0--3b--3----0--|--3b--3----0--1--4----4--||---1--0------0--0--0--1--|


     PM PM       PM PM          PM PM PM PM PM PM     
  E  E  E  E  E  E  E  E     E  E  E  E  E  E  E  E   
--------------------------|--------------------------|
--------------------------|--------------------------|
--------------------------|--------------------------|
--0--------1--0--------1--|--4--------------------4--|
--0--0--0--1--0--0--0--1--|--4--4--4--4--4--4--4--4--|
--0--0--0--1--0--0--0--1--|--4--4--4--4--4--4--4--4--|


     PM PM PM PM PM PM PM             PM PM PM     
  E  E  E  E  E  E  E  E     H        E  E  E  E   
--------------------------|-----------------------|
--------------------------|-----------------------|
--------------------------|-----------------------|
--1-----------------------|--0-----------------1--|
--1--1--1--1--1--1--1--1--|--0--------0--0--0--1--|
--1--1--1--1--1--1--1--1--|--0--------0--0--0--1--|


     PM PM               SH                                   
                                            |---3---|         
  E  E  E  E  E  E  E    E      E  E  E  E  E   E   E  E  E   
-----------------------------|-------------------------------|
-----------------------------|-------------------------------|
-----------------------------|----------------------------8--|
--0--------1--0--------------|----------------------------6--|
--0--0--0--1--0--------------|-------------------------------|
--0--0--0--1--0--3--6--<>7~--|--L--0--3--6--6h--7p--6--3-----|


      PM PM PM PM PM PM          PM PM       PM PM     
  E   E  E  E  E  E  E  E     E  E  E  E  E  E  E  E   
---------------------------|--------------------------|
---------------------------|--------------------------|
--L\-----------------------|--------------------------|
--L\--------------------1--|--0--------1--0--------1--|
------0--0--0--0--0--0--1--|--0--0--0--1--0--0--0--1--|
------0--0--0--0--0--0--1--|--0--0--0--1--0--0--0--1--|


     PM PM PM PM PM PM          PM PM PM PM PM PM PM             PM PM PM     
  E  E  E  E  E  E  E  E     E  E  E  E  E  E  E  E     H        E  E  E  E   
--------------------------|--------------------------|-----------------------|
--------------------------|--------------------------|-----------------------|
--------------------------|--------------------------|-----------------------|
--4--------------------4--|--1-----------------------|--0-----------------1--|
--4--4--4--4--4--4--4--4--|--1--1--1--1--1--1--1--1--|--0--------0--0--0--1--|
--4--4--4--4--4--4--4--4--|--1--1--1--1--1--1--1--1--|--0--------0--0--0--1--|


     PM PM               SH                                   
                                            |---3---|         
  E  E  E  E  E  E  E    E      E  E  E  E  E   E   E  E  E   
-----------------------------|-------------------------------|
-----------------------------|-------------------------------|
-----------------------------|-------------------------------|
--0--------1--0--------------|----------------------------8--|
--0--0--0--1--0--------------|----------------------------6--|
--0--0--0--1--0--3--6--<>7~--|--L--0--3--6--6h--7p--6--0-----|


  E   E  E  E  E  E  E  E     E  E  E  E  E  E  E  E    
---------------------------|---------------------------|
---------------------------|---------------------------|
---------------------------|---------------------------|
--L\--1--1--1--1--1--1--1--|--1--1--1--1--1--1--1--1S--|
--L\--1--1--1--1--1--1--1--|--1--1--1--1--1--1--1--1S--|
------1--1--1--1--1--1--1--|--1--1--1--1--1--1--1--1S--|


                          SH                                 
  E  E  E  E  E  E   E    E      E   E  E   E   E  E  E  E   
------------------------------|-----------------------------|
------------------------------|-----------------------------|
------------------------------|-----------------------------|
--4--4--4--4--4---------------|-----------------------------|
--4--4--4--4--4--6--10--------|---------6------10--6--9--5--|
--4--4--4--4--4---------<>9~--|--L--10-----10------------0--|


           PM       PM          PM       PM       PM  
  E  E  E  E  E  E  E  E     E  E  E  E  E  E  E  E   
--------------------------|--------------------------|
--------------------------|--------------------------|
--------------------------|--------------------------|
--------------------------|--------------------------|
--L--8--8-----8--8-----8--|--8-----8--8-----7--7-----|
--L--------0--------0-----|-----0--------0--------0--|


        PM       PM           PM       PM       PM     
  E  E  E  E  E  E  E   E     E  E  E  E  E  E  E  E   
---------------------------|--------------------------|
---------------------------|--------------------------|
---------------------------|--------------------------|
---------------------------|--------------------------|
--7--7-----5--5-----5s--4--|-----8--8-----8--8-----8--|
--------0--------0---------|--0--------0--------0-----|


     PM       PM       PM          PM       PM         
  E  E  E  E  E  E  E  E     E  E  E  E  E  E  E   E   
--------------------------|---------------------------|
--------------------------|---------------------------|
--------------------------|---------------------------|
--------------------------|---------------------------|
--8-----8--8-----3--3-----|--6--6-----6--6-----6s--5--|
-----0--------0--1--1--0--|--4--4--0--3--3--0---------|


  E  E  E  E  E  E  E  E     E  E  E  E  E  E  E  E   
--------------------------|--------------------------|
--------------------------|--------------------------|
--------------------------|--------------------------|
--------------------------|--------------------------|
-----8--8-----8--8-----8--|--8-----8--8-----7--7-----|
--0--------0--------0-----|-----0--------0--------0--|


                                        PM          PM  
  E  E  E  E  E  E  S S S S    E   Q    E  E   Q    E   
----------------------------|--------------------------|
----------------------------|--------------------------|
----------------------------|--------------------------|
----------------------------|--------------------------|
--7--7-----5--5-------------|--3b--3-------3b--3-------|
--------0--------0--6-5-3-0-|--3b--3----0--3b--3----0--|


           PM PM              PM PM PM PM PM PM PM PM  
  E   Q    E  E  Q    E       E  E  E  E  E  E  E  E   
--------------------------||--------------------------|
--------------------------||--------------------------|
-------------------------*||--------------------------|
-------------------------*||--------------------------|
--3b--3----------4----4---||--2--1--0--4--3--0--1--0--|
--3b--3----0--1--4----4---||--2--1--0--4--3--0--1--0--|


                                                      P.S.   
  PM PM PM PM PM    PM                                       
                                            |----3----|      
  E  E  E  E  E  E  E  E           H        H         Q      
--------------------------|-----|---------------------------|
--------------------------|-----|---------------------------|
--------------------------|-----|---------------------------|
-----------------3-----6--|-----|--------------------/x\----|
--4--3--0--1--0--3--0--6--|-----|--------------------/x\----|
--4--3--0--1--0--3--0--6--|-----|---------------------------|


  PM   PM   PM   PM   PM   PM      PM   PM   PM   PM   PM   PM    
  |----3----|    |----3----|       |----3----|    |----3----|     
  Q    Q    Q    Q    Q    Q       Q    Q    Q    Q    Q    Q     
--------------------------------|--------------------------------|
--------------------------------|--------------------------------|
--------------------------------|--------------------------------|
--------------------------------|--------------------------------|
--0----0----0----0----0----0----|--0----0----0----0----0----0----|
--0----0----0----0----0----0----|--0----0----0----0----0----0----|


  PM   PM   PM   PM   PM   PM      PM   PM   PM   PM   PM   PM    
  |----3----|    |----3----|       |----3----|    |----3----|     
  Q    Q    Q    Q    Q    Q       Q    Q    Q    Q    Q    Q     
--------------------------------|--------------------------------|
--------------------------------|--------------------------------|
--------------------------------|--------------------------------|
--------------------------------|--------------------------------|
--0----0----0----0----0----0----|--0----0----0----0----0----0----|
--0----0----0----0----0----0----|--0----0----0----0----0----0----|


  PM   PM   PM   PM   PM   PM      PM   PM   PM   PM   PM   PM    
  |----3----|    |----3----|       |----3----|    |----3----|     
  Q    Q    Q    Q    Q    Q       Q    Q    Q    Q    Q    Q     
--------------------------------|--------------------------------|
--------------------------------|--------------------------------|
--------------------------------|--------------------------------|
--------------------------------|--------------------------------|
--0----0----0----0----0----0----|--0----0----0----0----0----0----|
--0----0----0----0----0----0----|--0----0----0----0----0----0----|


    Rhy. Fig. 2                                                            
    PM          PM   PM   PM   PM   PM      PM   PM   PM   PM   PM   PM    
    |--------3-------|    |----3----|       |----3----|    |----3----|     
    Q           Q    Q    Q    Q    Q       Q    Q    Q    Q    Q    Q     
|----------------------------------------|--------------------------------|
|----------------------------------------|--------------------------------|
|*---------------------------------------|--------------------------------|
|*---------------------------------------|--------------------------------|
|---9-----------9----9----9----9----9----|--6----6----6----6----6----6----|
|---0-----------0----0----0----0----0----|--0----0----0----0----0----0----|


                                                            End Rhy. Fig. 2    
  PM   PM   PM   PM   PM   PM      PM   PM   PM   PM   PM   PM                 
  |----3----|    |----3----|       |----3----|    |----3----|                  
  Q    Q    Q    Q    Q    Q       Q    Q    Q    Q    Q    Q                3x
--------------------------------|--------------------------------------------||
--------------------------------|--------------------------------------------||
--------------------------------|-------------------------------------------*||
--------------------------------|-------------------------------------------*||
--8----8----8----8----8----8----|--8----8----8----8----8----8----------------||
--0----0----0----0----0----0----|--0----0----0----0----0----0----------------||


  PM   PM   PM   PM   PM   PM      PM   PM   PM   PM   PM   PM    
  |----3----|    |----3----|       |----3----|    |----3----|     
  Q    Q    Q    Q    Q    Q       Q    Q    Q    Q    Q    Q     
--------------------------------|--------------------------------|
--------------------------------|--------------------------------|
--------------------------------|--------------------------------|
--------------------------------|--------------------------------|
--9----9----9----9----9----9----|--6----6----6----6----6----6----|
--0----0----0----0----0----0----|--0----0----0----0----0----0----|


  PM   PM   PM   PM   PM   PM      PM   PM   PM   PM   PM   PM    
  |----3----|    |----3----|       |----3----|    |----3----|     
  Q    Q    Q    Q    Q    Q       Q    Q    Q    Q    Q    Q     
--------------------------------|--------------------------------|
--------------------------------|--------------------------------|
--------------------------------|--------------------------------|
--------------------------------|--------------------------------|
--5----5----5----5----5----5----|--5----5----5----5----5----5----|
--0----0----0----0----0----0----|--0----0----0----0----0----0----|


  PM PM PM PM PM PM          PM PM PM PM  
  |--3--|  |--3--|  |----3---|  |--3--|   
  E  E  E  E  E  E  S  S  E  E  E  E  E   
-----------------------------------------|
-----------------------------------------|
-----------------------------------------|
--------------------2h-3p-2--------------|
-----------------------------------------|
--3--3--3--3--3--3-----------3--3--3--3--|


           PM PM PM PM                    
  |----3---|  |--3--|  |--3--|  |--3--|   
  S  S  E  E  E  E  E  E  E  E  E  E  E   
-----------------------------------------|
-----------------------------------------|
-----------------------------------------|
--2h-3p-2-----------------2-----2--------|
-----------------------4-----4-----4--3--|
-----------3--3--3--3--------------------|


  PM PM PM PM PM PM          PM PM PM PM  
  |--3--|  |--3--|  |----3---|  |--3--|   
  E  E  E  E  E  E  S  S  E  E  E  E  E   
-----------------------------------------|
-----------------------------------------|
-----------------------------------------|
--------------------2h-3p-2--------------|
-----------------------------------------|
--3--3--3--3--3--3-----------3--3--3--3--|


                                      End Riff A  
           PM PM PM PM                            
  |----3---|  |--3--|  |--3--|  |--3--|           
  S  S  E  E  E  E  E  E  E  E  E  E  E           
-------------------------------------------------|
-------------------------------------------------|
-------------------------------------------------|
--2h-3p-2-----------------2-----2----------------|
-----------------------4-----4-----4--3----------|
-----------3--3--3--3----------------------------|


  PM PM PM PM PM PM          PM PM PM PM  
  |--3--|  |--3--|  |----3---|  |--3--|   
  E  E  E  E  E  E  S  S  E  E  E  E  E   
-----------------------------------------|
-----------------------------------------|
-----------------------------------------|
--------------------2h-3p-2--------------|
-----------------------------------------|
--3--3--3--3--3--3-----------3--3--3--3--|


           PM PM PM PM                    
  |----3---|  |--3--|  |--3--|  |--3--|   
  S  S  E  E  E  E  E  E  E  E  E  E  E   
-----------------------------------------|
-----------------------------------------|
-----------------------------------------|
--2h-3p-2-----------------2-----2--------|
-----------------------4-----4-----4--3--|
-----------3--3--3--3--------------------|


  PM PM PM PM PM PM          PM PM PM PM  
  |--3--|  |--3--|  |----3---|  |--3--|   
  E  E  E  E  E  E  S  S  E  E  E  E  E   
-----------------------------------------|
-----------------------------------------|
-----------------------------------------|
--------------------2h-3p-2--------------|
-----------------------------------------|
--3--3--3--3--3--3-----------3--3--3--3--|


             PM PM PM                        PM   PM   PM   PM   PM   PM    
  |---3---|  |--3--|  |--3--|  |--3--|       |----3----|    |----3----|     
  E   E   E  E  E  E  E  E  E  E  E  E       Q    Q    Q    Q    Q    Q     
----------------------------------------||---------------------------------|
----------------------------------------||---------------------------------|
----------------------------------------||*--------------------------------|
--2h--3p--2--------------2-----2--------||*--------------------------------|
----------------------4-----4-----4--3--||---9----9----9----9----9----9----|
-------------3--3--3--------------------||---0----0----0----0----0----0----|


  PM   PM   PM   PM   PM   PM      PM   PM   PM   PM   PM   PM    
  |----3----|    |----3----|       |----3----|    |----3----|     
  Q    Q    Q    Q    Q    Q       Q    Q    Q    Q    Q    Q     
--------------------------------|--------------------------------|
--------------------------------|--------------------------------|
--------------------------------|--------------------------------|
--------------------------------|--------------------------------|
--6----6----6----6----6----6----|--8----8----8----8----8----8----|
--0----0----0----0----0----0----|--0----0----0----0----0----0----|


  PM   PM   PM   PM   PM   PM                                             
  |----3----|    |----3----|         |--3--|  |--3--|  |--3--|  |--3--|   
  Q    Q    Q    Q    Q    Q     3x  E  E  E  E  E  E  E  E  E  E  E  E   
---------------------------------||--------------------------------------|
---------------------------------||--------------------------------------|
--------------------------------*||--------------------------------------|
--------------------------------*||--------------------------------------|
--8----8----8----8----8----8-----||--5--5--5--5--5--5--5--5--5--5--5--5--|
--0----0----0----0----0----0-----||--0--0--0--0--0--0--0--0--0--0--0--0--|


  |--3--|  |--3--|  |--3--|  |--3--|   
  E  E  E  E  E  E  E  E  E  E  E  E   
--------------------------------------|
--------------------------------------|
--------------------------------------|
--------------------------------------|
--5--5--5--5--5--5--5--5--5--5--5--5--|
--0--0--0--0--0--0--0--0--0--0--0--0--|


  PM PM PM PM PM PM          PM PM PM PM  
  |--3--|  |--3--|  |----3---|  |--3--|   
  E  E  E  E  E  E  S  S  E  E  E  E  E   
-----------------------------------------|
-----------------------------------------|
-----------------------------------------|
--------------------2h-3p-2--------------|
-----------------------------------------|
--3--3--3--3--3--3-----------3--3--3--3--|


           PM PM PM PM                    
  |----3---|  |--3--|  |--3--|  |--3--|   
  S  S  E  E  E  E  E  E  E  E  E  E  E   
-----------------------------------------|
-----------------------------------------|
-----------------------------------------|
--2h-3p-2-----------------2-----2--------|
-----------------------4-----4-----4--3--|
-----------3--3--3--3--------------------|


  PM PM PM PM PM PM          PM PM PM PM  
  |--3--|  |--3--|  |----3---|  |--3--|   
  E  E  E  E  E  E  S  S  E  E  E  E  E   
-----------------------------------------|
-----------------------------------------|
-----------------------------------------|
--------------------2h-3p-2--------------|
-----------------------------------------|
--3--3--3--3--3--3-----------3--3--3--3--|


           PM PM PM PM                    
  |----3---|  |--3--|  |--3--|  |--3--|   
  S  S  E  E  E  E  E  E  E  E  E  E  E   
-----------------------------------------|
-----------------------------------------|
-----------------------------------------|
--2h-3p-2-----------------2-----2--------|
-----------------------4-----4-----4--3--|
-----------3--3--3--3--------------------|


  PM PM PM PM PM PM          PM PM PM PM  
  |--3--|  |--3--|  |----3---|  |--3--|   
  E  E  E  E  E  E  S  S  E  E  E  E  E   
-----------------------------------------|
-----------------------------------------|
-----------------------------------------|
--------------------2h-3p-2--------------|
-----------------------------------------|
--3--3--3--3--3--3-----------3--3--3--3--|


           PM PM PM PM                    
  |----3---|  |--3--|  |--3--|  |--3--|   
  S  S  E  E  E  E  E  E  E  E  E  E  E   
-----------------------------------------|
-----------------------------------------|
-----------------------------------------|
--2h-3p-2-----------------2-----2--------|
-----------------------4-----4-----4--3--|
-----------3--3--3--3--------------------|


  PM PM PM PM PM PM          PM PM PM PM  
  |--3--|  |--3--|  |----3---|  |--3--|   
  E  E  E  E  E  E  S  S  E  E  E  E  E   
-----------------------------------------|
-----------------------------------------|
-----------------------------------------|
--------------------2h-3p-2--------------|
-----------------------------------------|
--3--3--3--3--3--3-----------3--3--3--3--|


           PM PM PM PM                    
  |----3---|  |--3--|  |--3--|  |--3--|   
  S  S  E  E  E  E  E  E  E  E  E  E  E   
-----------------------------------------|
-----------------------------------------|
-----------------------------------------|
--2h-3p-2-----------------2-----2--------|
-----------------------4-----4-----4--3--|
-----------3--3--3--3--------------------|


  Riff B                                      
  PM     PM PM PM PM PM          PM PM PM PM  
  |----3----|  |--3--|  |----3---|  |--3--|   
  E      E  E  E  E  E  S  S  E  E  E  E  E   
---------------------------------------------|
---------------------------------------------|
---------------------------------------------|
---------------------------------------------|
------------------------5h-6p-5--------------|
--0------0--0--0--0--0-----------0--0--0--0--|


           PM PM PM PM                     
  |----3---|  |--3--|  |--3--|  |---3--|   
  S  S  E  E  E  E  E  E  E  E  E  E   E   
------------------------------------------|
------------------------------------------|
------------------------------------------|
------------------------------------------|
--5h-6p-5-----------------4-----4---------|
-----------0--0--0--0--8-----8-----8p--7--|


  PM PM PM PM PM PM          PM PM PM PM  
  |--3--|  |--3--|  |----3---|  |--3--|   
  E  E  E  E  E  E  S  S  E  E  E  E  E   
-----------------------------------------|
-----------------------------------------|
-----------------------------------------|
-----------------------------------------|
--------------------5h-6p-5--------------|
--0--0--0--0--0--0-----------0--0--0--0--|


                                       End Riff B  
           PM PM PM PM                             
  |----3---|  |--3--|  |--3--|  |---3--|           
  S  S  E  E  E  E  E  E  E  E  E  E   E           
--------------------------------------------------|
--------------------------------------------------|
--------------------------------------------------|
--------------------------------------------------|
--5h-6p-5-----------------4-----4-----------------|
-----------0--0--0--0--8-----8-----8p--7----------|


  PM PM PM PM PM PM          PM PM PM PM  
  |--3--|  |--3--|  |----3---|  |--3--|   
  E  E  E  E  E  E  S  S  E  E  E  E  E   
-----------------------------------------|
-----------------------------------------|
-----------------------------------------|
-----------------------------------------|
--------------------5h-6p-5--------------|
--0--0--0--0--0--0-----------0--0--0--0--|


           PM PM PM PM                     
  |----3---|  |--3--|  |--3--|  |---3--|   
  S  S  E  E  E  E  E  E  E  E  E  E   E   
------------------------------------------|
------------------------------------------|
------------------------------------------|
------------------------------------------|
--5h-6p-5-----------------4-----4---------|
-----------0--0--0--0--8-----8-----8p--7--|


  PM PM PM PM PM PM          PM PM PM PM  
  |--3--|  |--3--|  |----3---|  |--3--|   
  E  E  E  E  E  E  S  S  E  E  E  E  E   
-----------------------------------------|
-----------------------------------------|
-----------------------------------------|
-----------------------------------------|
--------------------5h-6p-5--------------|
--0--0--0--0--0--0-----------0--0--0--0--|


           PM PM PM PM                     
  |----3---|  |--3--|  |--3--|  |---3--|   
  S  S  E  E  E  E  E  E  E  E  E  E   E   
------------------------------------------|
------------------------------------------|
------------------------------------------|
------------------------------------------|
--5h-6p-5-----------------4-----4---------|
-----------0--0--0--0--8-----8-----8p--7--|


                                                            PM PM PM PM         
  |--3--|  |--3--|  |--3--|  |--3--|     |---3--|  |--3--|  |--3--|  |---3--|   
  E  E  E  E  E  E  E  E  E  E  E  E     E   E  E  E  E  E  E  E  E  E  E   E   
--------------------------------------|----------------------------------------|
--------------------------------------|----------------------------------------|
--------------------------------------|----------------------------------------|
--1--1--1--1--1--1--1--1--1--1--1--1--|--1s--4--4--4--4--4---------------------|
--1--1--1--1--1--1--1--1--1--1--1--1--|--1s--4--4--4--4--4-----4-----4---------|
--1--1--1--1--1--1--1--1--1--1--1--1--|--1s--4--4--4--4--4--8-----8-----8p--7--|


  PM PM PM PM PM PM          PM PM PM PM  
  |--3--|  |--3--|  |----3---|  |--3--|   
  E  E  E  E  E  E  S  S  E  E  E  E  E   
-----------------------------------------|
-----------------------------------------|
-----------------------------------------|
-----------------------------------------|
--------------------5h-6p-5--------------|
--0--0--0--0--0--0-----------0--0--0--0--|


           PM PM PM PM PM PM PM PM         
  |----3---|  |--3--|  |--3--|  |---3--|   
  S  S  E  E  E  E  E  E  E  E  E  E   E   
------------------------------------------|
------------------------------------------|
------------------------------------------|
------------------------------------------|
--5h-6p-5-----------------4-----4---------|
-----------0--0--0--0--8-----8-----8p--7--|


  |--3--|  |--3--|  |--3--|  |--3--|   
  E  E  E  E  E  E  E  E  E  E  E  E   
--------------------------------------|
--------------------------------------|
--------------------------------------|
--1--1--1--1--1--1--1--1--1--1--1--1--|
--1--1--1--1--1--1--1--1--1--1--1--1--|
--1--1--1--1--1--1--1--1--1--1--1--1--|


                          PM PM           
  |---3--|  |--3--|   |---3--|  |--3--|   
  E   E  E  E  E  E   E   E  E  E  E  E   
-----------------------------------------|
-----------------------------------------|
-----------------------------------------|
--1s--4--4--4--4--4-------------5-----5--|
--1s--4--4--4--4--4--/6------------6-----|
--1s--4--4--4--4--4------10--9-----------|


  Rhy. Fig. 3                                   
  |-------3------|  |--3--|  |--3--|  |--3--|   
  E           E  E  E  E  E  E  E  E  E  E  E   
-----------------------------------------------|
-----------------------------------------------|
-----------------------------------------------|
--0-----------0--0--0--0--0--0--0--0--0--0--0--|
--0-----------0--0--0--0--0--0--0--0--0--0--0--|
--0-----------0--0--0--0--0--0--0--0--0--0--0--|


  |--3--|  |--3--|  |--3--|  |--3--|     |--3--|  |--3--|  |--3--|  |--3--|   
  E  E  E  E  E  E  E  E  E  E  E  E     E  E  E  E  E  E  E  E  E  E  E  E   
--------------------------------------|--------------------------------------|
--------------------------------------|--------------------------------------|
--------------------------------------|--------------------------------------|
--0--0--0--0--0--0--0--0--0--0--0--0--|--------------------------------------|
--0--0--0--0--0--0--0--0--0--0--0--0--|--------------------------------------|
--0--0--0--0--0--0--0--0--0--0--0--0--|--0--0--0--0--0--0--0--0--0--0--0--0--|


  |--3--|  |--3--|  |--3--|  |--3--|     |--3--|  |--3--|  |--3--|  |--3--|   
  E  E  E  E  E  E  E  E  E  E  E  E     E  E  E  E  E  E  E  E  E  E  E  E   
--------------------------------------|--------------------------------------|
--------------------------------------|--------------------------------------|
--------------------------------------|--------------------------------------|
--------------------------------------|--0--0--0--0--0--0--0--0--0--0--0--0--|
--------------------------------------|--0--0--0--0--0--0--0--0--0--0--0--0--|
--0--0--0--0--0--0--0--0--0--0--0--0--|--0--0--0--0--0--0--0--0--0--0--0--0--|


  |--3--|  |--3--|  |--3--|  |--3--|     |--3--|  |--3--|  |--3--|  |--3--|   
  E  E  E  E  E  E  E  E  E  E  E  E     E  E  E  E  E  E  E  E  E  E  E  E   
--------------------------------------|--------------------------------------|
--------------------------------------|--------------------------------------|
--------------------------------------|--------------------------------------|
--0--0--0--0--0--0--0--0--0--0--0--0--|--0--0--0--0--0--0--0--0--0--0--0--0--|
--0--0--0--0--0--0--0--0--0--0--0--0--|--0--0--0--0--0--0--0--0--0--0--0--0--|
--0--0--0--0--0--0--0--0--0--0--0--0--|--0--0--0--0--0--0--0--0--0--0--0--0--|


                                            End Rhy. Fig. 3  
           PM          PM          PM                        
  |----3---|  |----3---|  |----3---|  |--3--|                
  S  S  E  E  S  S  E  E  S  S  E  E  E  E  E                
------------------------------------------------------------|
------------------------------------------------------------|
------------------------------------------------------------|
------------------------------------------------------------|
-----------------------------------------3--3---------------|
--3h-4p-3--0--3h-4p-3--0--3h-4p-3--0--6---------------------|


  |--3--|  |--3--|  |--3--|  |--3--|     |--3--|  |--3--|  |--3--|  |--3--|   
  E  E  E  E  E  E  E  E  E  E  E  E     E  E  E  E  E  E  E  E  E  E  E  E   
--------------------------------------|--------------------------------------|
--------------------------------------|--------------------------------------|
--------------------------------------|--------------------------------------|
--0--0--0--0--0--0--0--0--0--0--0--0--|--0--0--0--0--0--0--0--0--0--0--0--0--|
--0--0--0--0--0--0--0--0--0--0--0--0--|--0--0--0--0--0--0--0--0--0--0--0--0--|
--0--0--0--0--0--0--0--0--0--0--0--0--|--0--0--0--0--0--0--0--0--0--0--0--0--|


  |--3--|  |--3--|  |--3--|  |--3--|     |--3--|  |--3--|  |--3--|  |--3--|   
  E  E  E  E  E  E  E  E  E  E  E  E     E  E  E  E  E  E  E  E  E  E  E  E   
--------------------------------------|--------------------------------------|
--------------------------------------|--------------------------------------|
--------------------------------------|--------------------------------------|
--------------------------------------|--------------------------------------|
--------------------------------------|--------------------------------------|
--0--0--0--0--0--0--0--0--0--0--0--0--|--0--0--0--0--0--0--0--0--0--0--0--0--|


  |--3--|  |--3--|  |--3--|  |--3--|     |--3--|  |--3--|  |--3--|  |--3--|   
  E  E  E  E  E  E  E  E  E  E  E  E     E  E  E  E  E  E  E  E  E  E  E  E   
--------------------------------------|--------------------------------------|
--------------------------------------|--------------------------------------|
--------------------------------------|--------------------------------------|
--0--0--0--0--0--0--0--0--0--0--0--0--|--0--0--0--0--0--0--0--0--0--0--0--0--|
--0--0--0--0--0--0--0--0--0--0--0--0--|--0--0--0--0--0--0--0--0--0--0--0--0--|
--0--0--0--0--0--0--0--0--0--0--0--0--|--0--0--0--0--0--0--0--0--0--0--0--0--|


  |--3--|  |--3--|  |--3--|  |--3--|   
  E  E  E  E  E  E  E  E  E  E  E  E   
--------------------------------------|
--------------------------------------|
--------------------------------------|
--0--0--0--0--0--0--0--0--0--0--0--0--|
--0--0--0--0--0--0--0--0--0--0--0--0--|
--0--0--0--0--0--0--0--0--0--0--0--0--|


           PM          PM          PM           
  |----3---|  |----3---|  |----3---|  |--3--|   
  S  S  E  E  S  S  E  E  S  S  E  E  E  E  E   
-----------------------------------------------|
-----------------------------------------------|
-----------------------------------------------|
-----------------------------------------------|
-----------------------------------------3--3--|
--3h-4p-3--0--3h-4p-3--0--3h-4p-3--0--6--------|


  |--3--|  |--3--|  |--3--|  |--3--|   
  E  E  E  E  E  E  E  E  E  E  E  E   
--------------------------------------|
--------------------------------------|
--------------------------------------|
--1--1--1--1--1--1--1--1--1--1--1--1--|
--1--1--1--1--1--1--1--1--1--1--1--1--|
--1--1--1--1--1--1--1--1--1--1--1--1--|


  Rhy. Fig. 4                                         
                                      PM              
  |-------3------|  |--3--|  |----3---|  |----3---|   
  E           E  E  E  E  E  S  S  E  E  S  S  E  E   
-----------------------------------------------------|
-----------------------------------------------------|
-----------------------------------------------------|
--1s----------4--4--4--4--4--------------------------|
--1s----------4--4--4--4--4--------------------------|
--1s----------4--4--4--4--4--3h-4p-3--0--3h-4p-3--1--|


  PM PM PM PM PM PM PM PM PM PM PM PM  
  |--3--|  |--3--|  |--3--|  |--3--|   
  E  E  E  E  E  E  E  E  E  E  E  E   
--------------------------------------|
--------------------------------------|
--------------------------------------|
--------------------------------------|
--------------------------------------|
--0--0--0--0--0--0--0--0--0--0--0--0--|


   |---3---|   |---3---|    |---3---|   |---3---|    
   E   E   E   E   E   E    E   E   E   E   E   E    
----------------------------------------------------|
----------------------------------------------------|
----------------------------------------------------|
--15--15--15--15--15--15-------15--15--15--15--15S--|
--12--12--12--12--12--12s--11--11--11--11--11--11S--|
--12--12--12--12--12--12s--11--11--11--11--11--11S--|


                                   End Rhy. Fig. 4  
  |--3--|  |--3--|  |--3--|  |--3--|                
  E  E  E  E  E  E  E  E  E  E  E  E                
---------------------------------------------------|
---------------------------------------------------|
---------------------------------------------------|
--1--1--1--1--1--1--1--1--1--1--1--1---------------|
--1--1--1--1--1--1--1--1--1--1--1--1---------------|
--1--1--1--1--1--1--1--1--1--1--1--1---------------|


                             PM              
  |--3--|  |--3--|  |----3---|  |----3---|   
  E  E  E  E  E  E  S  S  E  E  S  S  E  E   
--------------------------------------------|
--------------------------------------------|
--------------------------------------------|
--1--4--4--4--4--4--------------------------|
--1--4--4--4--4--4--------------------------|
--1--4--4--4--4--4--3h-4p-3--1--3h-4p-3--1--|


        PM PM PM PM PM PM PM PM PM PM  
  |--3--|  |--3--|  |--3--|  |--3--|   
  E  E  E  E  E  E  E  E  E  E  E  E   
--------------------------------------|
--------------------------------------|
--------------------------------------|
--------------------------------------|
--------------------------------------|
--0--0--0--0--0--0--0--0--0--0--0--0--|


   |---3---|   |---3---|   |---3---|   |---3---|   
   E   E   E   E   E   E   E   E   E   E   E   E   
--------------------------------------------------|
--------------------------------------------------|
--------------------------------------------------|
--12--12--12--12--12--12------12--12--12--12--12--|
---8---8---8---8---8---8s--7---7---7---7---7---7--|
---8---8---8---8---8---8s--7---7---7---7---7---7--|


  |--3--|  |--3--|  |--3--|  |--3--|   
  E  E  E  E  E  E  E  E  E  E  E  E   
--------------------------------------|
--------------------------------------|
--------------------------------------|
--1--1--1--1--1--1--1--1--1--1--1--1--|
--1--1--1--1--1--1--1--1--1--1--1--1--|
--1--1--1--1--1--1--1--1--1--1--1--1--|


                              PM              
  |---3--|  |--3--|  |----3---|  |----3---|   
  E   E  E  E  E  E  S  S  E  E  S  S  E  E   
---------------------------------------------|
---------------------------------------------|
---------------------------------------------|
--1s--4--4--4--4--4--------------------------|
--1s--4--4--4--4--4--------------------------|
--1s--4--4--4--4--4--3h-4p-3--0--3h-4p-3--1--|


  PM PM PM PM PM PM PM PM PM PM PM PM  
  |--3--|  |--3--|  |--3--|  |--3--|   
  E  E  E  E  E  E  E  E  E  E  E  E   
--------------------------------------|
--------------------------------------|
--------------------------------------|
--------------------------------------|
--------------------------------------|
--0--0--0--0--0--0--0--0--0--0--0--0--|


   |---3---|   |---3---|    |---3---|   |---3---|    
   E   E   E   E   E   E    E   E   E   E   E   E    
----------------------------------------------------|
----------------------------------------------------|
----------------------------------------------------|
--15--15--15--15--15--15-------15--15--15--15--15S--|
--12--12--12--12--12--12s--11--11--11--11--11--11S--|
--12--12--12--12--12--12s--11--11--11--11--11--11S--|


  |--3--|  |--3--|  |--3--|  |--3--|   
  E  E  E  E  E  E  E  E  E  E  E  E   
--------------------------------------|
--------------------------------------|
--------------------------------------|
--1--1--1--1--1--1--1--1--1--1--1--1--|
--1--1--1--1--1--1--1--1--1--1--1--1--|
--1--1--1--1--1--1--1--1--1--1--1--1--|


                              PM                PM   PM   PM   PM   PM   PM    
  |---3--|  |--3--|  |----3---|  |----3---|     |----3----|    |----3----|     
  E   E  E  E  E  E  S  S  E  E  S  S  E  E     Q    Q    Q    Q    Q    Q     
---------------------------------------------|--------------------------------|
---------------------------------------------|--------------------------------|
---------------------------------------------|--------------------------------|
--1s--4--4--4--4--4--------------------------|--------------------------------|
--1s--4--4--4--4--4--------------------------|--0----0----0----0----0----0----|
--1s--4--4--4--4--4--3h-4p-3--1--3h-4p-3--1--|--0----0----0----0----0----0----|


  PM   PM   PM   PM   PM   PM      PM                    
  |----3----|    |----3----|                             
  Q    Q    Q    Q    Q    Q       E  E  Q    H          
--------------------------------|----------------------||
--------------------------------|----------------------||
--------------------------------|----------------------||
--------------------------------|----------------------||
--0----0----0----0----0----0----|--0-------------------||
--0----0----0----0----0----0----|--0-------------------||










Guitar # 3: 



E||-------|-------|-------|-------|-------|-------|-------|-------|-------|
B||-------|-------|-------|-------|-------|-------|-------|-------|-------|
G||-------|-------|-------|-------|-------|-------|-------|-------|-------|
D||-------|-------|-------|-------|-------|-------|-------|-------|-------|
A||-------|-------|-------|-------|-------|-------|-------|-------|-------|
D||-------|-------|-------|-------|-------|-------|-------|-------|-------|


-------|-------|-------|-------|-------|-------|-------|-------|-------|-------|
-------|-------|-------|-------|-------|-------|-------|-------|-------|-------|
-------|-------|-------|-------|-------|-------|-------|-------|-------|-------|
-------|-------|-------|-------|-------|-------|-------|-------|-------|-------|
-------|-------|-------|-------|-------|-------|-------|-------|-------|-------|
-------|-------|-------|-------|-------|-------|-------|-------|-------|-------|


-------|-------|-------||--------|-------|-------|-------|-------|-------|
-------|-------|-------||--------|-------|-------|-------|-------|-------|
-------|-------|-------||*-------|-------|-------|-------|-------|-------|
-------|-------|-------||*-------|-------|-------|-------|-------|-------|
-------|-------|-------||--------|-------|-------|-------|-------|-------|
-------|-------|-------||--------|-------|-------|-------|-------|-------|


-------|-------|-------|-------|-------|-------|-------|-------|-------|-------|
-------|-------|-------|-------|-------|-------|-------|-------|-------|-------|
-------|-------|-------|-------|-------|-------|-------|-------|-------|-------|
-------|-------|-------|-------|-------|-------|-------|-------|-------|-------|
-------|-------|-------|-------|-------|-------|-------|-------|-------|-------|
-------|-------|-------|-------|-------|-------|-------|-------|-------|-------|


-------|-------|-------|-------|-------|-------|-------|-------|-------|-------|
-------|-------|-------|-------|-------|-------|-------|-------|-------|-------|
-------|-------|-------|-------|-------|-------|-------|-------|-------|-------|
-------|-------|-------|-------|-------|-------|-------|-------|-------|-------|
-------|-------|-------|-------|-------|-------|-------|-------|-------|-------|
-------|-------|-------|-------|-------|-------|-------|-------|-------|-------|


-------|-------|--------||-------|-------|-------|-------|-------|-------|
-------|-------|--------||-------|-------|-------|-------|-------|-------|
-------|-------|-------*||-------|-------|-------|-------|-------|-------|
-------|-------|-------*||-------|-------|-------|-------|-------|-------|
-------|-------|--------||-------|-------|-------|-------|-------|-------|
-------|-------|--------||-------|-------|-------|-------|-------|-------|


                                                                  3x        
-------|-------|-------|-------||--------|-------|-------|--------||-------|
-------|-------|-------|-------||--------|-------|-------|--------||-------|
-------|-------|-------|-------||*-------|-------|-------|-------*||-------|
-------|-------|-------|-------||*-------|-------|-------|-------*||-------|
-------|-------|-------|-------||--------|-------|-------|--------||-------|
-------|-------|-------|-------||--------|-------|-------|--------||-------|


-------|-------|-------|-------|-------|-------|-------|-------|-------|-------|
-------|-------|-------|-------|-------|-------|-------|-------|-------|-------|
-------|-------|-------|-------|-------|-------|-------|-------|-------|-------|
-------|-------|-------|-------|-------|-------|-------|-------|-------|-------|
-------|-------|-------|-------|-------|-------|-------|-------|-------|-------|
-------|-------|-------|-------|-------|-------|-------|-------|-------|-------|


                                                                P.S.        
                                          3x          H        Q     Q      
-------||--------|-------|-------|--------||-------|-----------------------|
-------||--------|-------|-------|--------||-------|-----------------------|
-------||*-------|-------|-------|-------*||-------|-----------------------|
-------||*-------|-------|-------|-------*||-------|-----------x\----x\----|
-------||--------|-------|-------|--------||-------|-----------x\----x\----|
-------||--------|-------|-------|--------||-------|-----------------------|


                 |---3---|   |---3---|   
   H             E   E   E   E   E   E   
----------------------------------------|
--16b~--------<>16--13------13----------|
------------------------16------16--15--|
----------------------------------------|
----------------------------------------|
----------------------------------------|


               PM      PM  PM  PM  PM  PM                
      |----3---|   |---3---|   |---3---|                 
      E    E   E   E   E   E   E   E   E   S   S   S  S  
--------------------------------------------------------|
--------------------------------------------------------|
--15g13p--12------12----------------------12h-13p-12----|
--------------15------15--13--12--13--15-------------15-|
--------------------------------------------------------|
--------------------------------------------------------|


       PM  PM  PM  PM  PM                           
   |---3---|   |---3---|   |---3---|   |----3---|   
   E   E   E   E   E   E   E   E   E   E    E   E   
---------------------------------------------------|
--------------------------------------12S--13--15--|
--12----------------------12--13--15---------------|
------15--13--12--13--15---------------------------|
---------------------------------------------------|
---------------------------------------------------|


   |---3---|   |---3---|                   
   E   E   E   E   E   E   E   E     Q     
--------------------------16---Lb~---L----|
--13--15--16--13--15--16------------------|
------------------------------------------|
------------------------------------------|
------------------------------------------|
------------------------------------------|


   |----3---|            |----3---|   |----3----|   
   E    E   E   E    E   E    E   E   E   E     E   
---------------------------------------------------|
--16p--13------16b---L--16p--13------13--16--<>13--|
-----------16--------------------16----------------|
---------------------------------------------------|
---------------------------------------------------|
---------------------------------------------------|


             |---3--|      |---3---|   |---3---|   
   E    E    Q      E      E   E   E   E   E   E   
--------------------------------------15----------|
--18b---L~---L\---------------18--------------18--|
-------------------13--15g17------17------17------|
--------------------------------------------------|
--------------------------------------------------|
--------------------------------------------------|


               |---3---|   |---3---|   
   H           E   E   E   E   E   E   
--16b~--------16--13------13----------|
----------------------16------16--15--|
--------------------------------------|
--------------------------------------|
--------------------------------------|
--------------------------------------|


   |---3---|   |---3---|   |---3---|   |---3---|   
   E   E   E   E   E   E   E   E   E   E   E   E   
--------------------------------------------------|
--13------13--------------------------------------|
------16------16--15--13------13------15------13--|
--------------------------15------15------15------|
--------------------------------------------------|
--------------------------------------------------|


   |----3----|     |-----3-----|        |-----3-----|     |----3----|     
   H         Q     Q     Q     Q        Q     Q     Q     Q    Q    Q     
------------------------------------|------------------------------------|
--13--------------------12----------|--11----------10----------9---------|
------------13-----L----------12----|--------11----------10---------7----|
------------------------------------|------------------------------------|
------------------------------------|------------------------------------|
------------------------------------|------------------------------------|


    |------3------|    |----3----|               |---3--|    |---3--|          
    Q      Q      Q    Q    Q    Q         Q     E  E   E    Q      E   E  E   
--------------------------------------|---------------------------------------|
-----------------------7----8----7----|--<>8b----L--8p--7--<>8----<>8~--L-----|
--<>8----<>7----<>8-------------------|---------------------------------------|
--------------------------------------|---------------------------------------|
--------------------------------------|---------------------------------------|
--------------------------------------|---------------------------------------|


             PM PM PM PM          PM PM PM PM  
    |----3---|  |--3--|  |----3---|  |--3--|   
    E     E  E  E  E  E  S  S  E  E  E  E  E   
----------------------------------------------|
----------------------------------------------|
----------------------------------------------|
----------------------5--5h-7p-5-----5--------|
--<>5p--<>4--5--7--8--------------8-----8--7--|
----------------------------------------------|


  PM PM PM PM PM PM          PM PM PM PM  
  |--3--|  |--3--|  |----3---|  |--3--|   
  E  E  E  E  E  E  S  S  E  E  E  E  E   
-----------------------------------------|
-----------------------------------------|
--------------------6h-7p-6-----6--------|
-----------5--7--8-----------8-----8--7--|
--5--7--8--------------------------------|
-----------------------------------------|


  PM PM PM PM PM               PM PM PM PM                                      
  |--3--|  |----3---| |----3---|  |--3--|      |-------3------|                 
  E  E  E  E  E  S  S S  S  E  E  E  E  E      Q       Q      Q     H           
-------------------------------------------|--12p~----11~----------15b~--------|
-----------------5h-8-5h-6p-5-----5--------|-----------------10----------------|
-----------6--7----------------7-----7--6--|-----------------------------------|
--5--7--8----------------------------------|-----------------------------------|
-------------------------------------------|-----------------------------------|
-------------------------------------------|-----------------------------------|


   W                    W                                     
---L----------------|---L----------------|-------------------|
--------------------|--------------------|-------------------|
--------------------|--------------------|-------------------|
--------------------|--------------------|-------------------|
--------------------|--------------------|-------------------|
--------------------|--------------------|-------------------|


-------------------|-------------------|-------------------|-------------------|
-------------------|-------------------|-------------------|-------------------|
-------------------|-------------------|-------------------|-------------------|
-------------------|-------------------|-------------------|-------------------|
-------------------|-------------------|-------------------|-------------------|
-------------------|-------------------|-------------------|-------------------|


-------------------|-------------------|-------------------|-------------------|
-------------------|-------------------|-------------------|-------------------|
-------------------|-------------------|-------------------|-------------------|
-------------------|-------------------|-------------------|-------------------|
-------------------|-------------------|-------------------|-------------------|
-------------------|-------------------|-------------------|-------------------|


-------------------|-------------------|-------------------|-------------------|
-------------------|-------------------|-------------------|-------------------|
-------------------|-------------------|-------------------|-------------------|
-------------------|-------------------|-------------------|-------------------|
-------------------|-------------------|-------------------|-------------------|
-------------------|-------------------|-------------------|-------------------|


-------------------|-------------------|-------------------|-------------------|
-------------------|-------------------|-------------------|-------------------|
-------------------|-------------------|-------------------|-------------------|
-------------------|-------------------|-------------------|-------------------|
-------------------|-------------------|-------------------|-------------------|
-------------------|-------------------|-------------------|-------------------|


-------------------|-------------------|-------------------|-------------------|
-------------------|-------------------|-------------------|-------------------|
-------------------|-------------------|-------------------|-------------------|
-------------------|-------------------|-------------------|-------------------|
-------------------|-------------------|-------------------|-------------------|
-------------------|-------------------|-------------------|-------------------|


-------------------|-------------------|-------------------|-------------------|
-------------------|-------------------|-------------------|-------------------|
-------------------|-------------------|-------------------|-------------------|
-------------------|-------------------|-------------------|-------------------|
-------------------|-------------------|-------------------|-------------------|
-------------------|-------------------|-------------------|-------------------|


-------------------|-------------------|-------------------|-------------------|
-------------------|-------------------|-------------------|-------------------|
-------------------|-------------------|-------------------|-------------------|
-------------------|-------------------|-------------------|-------------------|
-------------------|-------------------|-------------------|-------------------|
-------------------|-------------------|-------------------|-------------------|


-------------------|-------------------|-------------------|-------------------|
-------------------|-------------------|-------------------|-------------------|
-------------------|-------------------|-------------------|-------------------|
-------------------|-------------------|-------------------|-------------------|
-------------------|-------------------|-------------------|-------------------|
-------------------|-------------------|-------------------|-------------------|


-------------------|-------------------|-------------------|
-------------------|-------------------|-------------------|
-------------------|-------------------|-------------------|
-------------------|-------------------|-------------------|
-------------------|-------------------|-------------------|
-------------------|-------------------|-------------------|


-------------------||
-------------------||
-------------------||
-------------------||
-------------------||
-------------------||










Guitar # 4:


E||-------|-------|-------|-------|-------|-------|-------|-------|-------|
B||-------|-------|-------|-------|-------|-------|-------|-------|-------|
G||-------|-------|-------|-------|-------|-------|-------|-------|-------|
D||-------|-------|-------|-------|-------|-------|-------|-------|-------|
A||-------|-------|-------|-------|-------|-------|-------|-------|-------|
D||-------|-------|-------|-------|-------|-------|-------|-------|-------|


-------|-------|-------|-------|-------|-------|-------|-------|-------|-------|
-------|-------|-------|-------|-------|-------|-------|-------|-------|-------|
-------|-------|-------|-------|-------|-------|-------|-------|-------|-------|
-------|-------|-------|-------|-------|-------|-------|-------|-------|-------|
-------|-------|-------|-------|-------|-------|-------|-------|-------|-------|
-------|-------|-------|-------|-------|-------|-------|-------|-------|-------|


-------|-------|-------||--------|-------|-------|-------|-------|-------|
-------|-------|-------||--------|-------|-------|-------|-------|-------|
-------|-------|-------||*-------|-------|-------|-------|-------|-------|
-------|-------|-------||*-------|-------|-------|-------|-------|-------|
-------|-------|-------||--------|-------|-------|-------|-------|-------|
-------|-------|-------||--------|-------|-------|-------|-------|-------|


-------|-------|-------|-------|-------|-------|-------|-------|-------|-------|
-------|-------|-------|-------|-------|-------|-------|-------|-------|-------|
-------|-------|-------|-------|-------|-------|-------|-------|-------|-------|
-------|-------|-------|-------|-------|-------|-------|-------|-------|-------|
-------|-------|-------|-------|-------|-------|-------|-------|-------|-------|
-------|-------|-------|-------|-------|-------|-------|-------|-------|-------|


-------|-------|-------|-------|-------|-------|-------|-------|-------|-------|
-------|-------|-------|-------|-------|-------|-------|-------|-------|-------|
-------|-------|-------|-------|-------|-------|-------|-------|-------|-------|
-------|-------|-------|-------|-------|-------|-------|-------|-------|-------|
-------|-------|-------|-------|-------|-------|-------|-------|-------|-------|
-------|-------|-------|-------|-------|-------|-------|-------|-------|-------|


-------|-------|--------||-------|-------|-------|-------|-------|-------|
-------|-------|--------||-------|-------|-------|-------|-------|-------|
-------|-------|-------*||-------|-------|-------|-------|-------|-------|
-------|-------|-------*||-------|-------|-------|-------|-------|-------|
-------|-------|--------||-------|-------|-------|-------|-------|-------|
-------|-------|--------||-------|-------|-------|-------|-------|-------|


                                                                  3x        
-------|-------|-------|-------||--------|-------|-------|--------||-------|
-------|-------|-------|-------||--------|-------|-------|--------||-------|
-------|-------|-------|-------||*-------|-------|-------|-------*||-------|
-------|-------|-------|-------||*-------|-------|-------|-------*||-------|
-------|-------|-------|-------||--------|-------|-------|--------||-------|
-------|-------|-------|-------||--------|-------|-------|--------||-------|


-------|-------|-------|-------|-------|-------|-------|-------|-------|-------|
-------|-------|-------|-------|-------|-------|-------|-------|-------|-------|
-------|-------|-------|-------|-------|-------|-------|-------|-------|-------|
-------|-------|-------|-------|-------|-------|-------|-------|-------|-------|
-------|-------|-------|-------|-------|-------|-------|-------|-------|-------|
-------|-------|-------|-------|-------|-------|-------|-------|-------|-------|


                                          3x                                
-------||--------|-------|-------|--------||-------|-------|-------|-------|
-------||--------|-------|-------|--------||-------|-------|-------|-------|
-------||*-------|-------|-------|-------*||-------|-------|-------|-------|
-------||*-------|-------|-------|-------*||-------|-------|-------|-------|
-------||--------|-------|-------|--------||-------|-------|-------|-------|
-------||--------|-------|-------|--------||-------|-------|-------|-------|


-------|-------|-------|-------|-------|-------|-------|-------|-------|-------|
-------|-------|-------|-------|-------|-------|-------|-------|-------|-------|
-------|-------|-------|-------|-------|-------|-------|-------|-------|-------|
-------|-------|-------|-------|-------|-------|-------|-------|-------|-------|
-------|-------|-------|-------|-------|-------|-------|-------|-------|-------|
-------|-------|-------|-------|-------|-------|-------|-------|-------|-------|


-------|-------|-------|-------|-------|-------|-------|-------|-------|-------|
-------|-------|-------|-------|-------|-------|-------|-------|-------|-------|
-------|-------|-------|-------|-------|-------|-------|-------|-------|-------|
-------|-------|-------|-------|-------|-------|-------|-------|-------|-------|
-------|-------|-------|-------|-------|-------|-------|-------|-------|-------|
-------|-------|-------|-------|-------|-------|-------|-------|-------|-------|


    Riff C                                                              
                          |-3-|                                         
    W                     E   Q     H.               W                  
----------------------|--------------------------|---------------------|
----------------------|--------------------------|---------------------|
--/11~----------------|--11S--8~----L------------|--10~----------------|
----------------------|--------------------------|---------------------|
---/9-----------------|---9S--6~----L------------|---8~----------------|
----------------------|--------------------------|---------------------|


                                                 |-3-|                   
   W                       W                     E   Q     H.            
--------------------|------------------------|--------------------------|
--------------------|------------------------|--------------------------|
---L----------------|--10g11~----------------|--11S--8~----L------------|
--------------------|------------------------|--------------------------|
---L----------------|----8g9~----------------|---9S--6~----L------------|
--------------------|------------------------|--------------------------|


            End Riff C                                           
  |-3-|                                                          
  E   Q     H.                                W                  
-------------------------|---------------|----------------------|
-------------------------|---------------|----------------------|
--8p--7~----L------------|---------------|--/11~----------------|
-------------------------|---------------|----------------------|
--6p--5~----L------------|---------------|---/9-----------------|
-------------------------|---------------|----------------------|


   |-3-|                                                              
   E   Q     H.               W                     W                 
--------------------------|---------------------|--------------------|
--------------------------|---------------------|--------------------|
--11S--8~----L------------|--10~----------------|---L----------------|
--------------------------|---------------------|--------------------|
---9S--6~----L------------|---8~----------------|---L----------------|
--------------------------|---------------------|--------------------|


                            |-3-|                     |-3-|                   
      W                     E   Q     H.              E   Q     H.            
------------------------|--------------------------|-------------------------|
------------------------|--------------------------|-------------------------|
--10g11~----------------|--11S--8~----L------------|--8p--7~----L------------|
------------------------|--------------------------|-------------------------|
----8g9~----------------|---9S--6~----L------------|--6p--5~----L------------|
------------------------|--------------------------|-------------------------|


                   |---3---|   |---3---|   |---3---|   |---3---|   
                   E   E   E   E   E   E   E   E   E   E   E   E   
---------------|--------------------------------------------------|
---------------|--15--15--15--15--15--15--15--15--15--15--15--15--|
---------------|--------------------------------------------------|
---------------|--------------------------------------------------|
---------------|--------------------------------------------------|
---------------|--------------------------------------------------|


                                                                      fdbk      
   |---3---|   |---3---|   |---3---|   |---3---|                                
   E   E   E   E   E   E   E   E   E   E   E   E      E    E   Q      H         
--------------------------------------------------|----------------------------|
--15--16--16--16--16--16--16--16--16--16--16--16--|--15b---L---L~-----L--------|
--------------------------------------------------|----------------------------|
--------------------------------------------------|----------------------------|
--------------------------------------------------|----------------------------|
--------------------------------------------------|----------------------------|


                        |---3---|   |---3---|   |---3---|   |---3---|   
   W                    E   E   E   E   E   E   E   E   E   E   E   E   
--------------------|--------------------------------------------------|
---L----------------|--15--15--15--15--15--15--15--15--15--15--15--15--|
--------------------|--------------------------------------------------|
--------------------|--------------------------------------------------|
--------------------|--------------------------------------------------|
--------------------|--------------------------------------------------|


   |----3---|   |---3---|   |---3---|   |---3---|   
   E    E   E   E   E   E   E   E   E   E   E   E   
---------------------------------------------------|
--15h--16--16--16--16--16--16--16--16--16--16--16--|
---------------------------------------------------|
---------------------------------------------------|
---------------------------------------------------|
---------------------------------------------------|


                   fdbk                            
   E    E   Q      H            W                  
----------------------------|---------------------|
--15b---L---L~-----L--------|---------------------|
----------------------------|--14~----------------|
----------------------------|---------------------|
----------------------------|---------------------|
----------------------------|---------------------|


  |--3--|  |--3--|  |--3--|  |--3--|   
  E  E  E  E  E  E  E  E  E  E  E  E   
--------------------------------------|
--------------------------------------|
--8--8--8--8--8--8--8--8--8--8--8--8--|
--------------------------------------|
--------------------------------------|
--------------------------------------|


  |----3---|   |---3---|   |---3---|   |---3--|                        
  E    E   E   E   E   E   E   E   E   E   E  E     W                  
-------------------------------------------------|--------------------|
-------------------------------------------------|--------------------|
--8s--11--11--11--11--11--11--11--11--11--11--8--|--7~----------------|
-------------------------------------------------|--------------------|
-------------------------------------------------|--------------------|
-------------------------------------------------|--------------------|


                      |--3--|  |--3--|  |--3--|  |--3--|   
  W                   E  E  E  E  E  E  E  E  E  E  E  E   
-------------------|--------------------------------------|
-------------------|--------------------------------------|
--L----------------|--8--8--8--8--8--8--8--8--8--8--8--8--|
-------------------|--------------------------------------|
-------------------|--------------------------------------|
-------------------|--------------------------------------|


  |----3---|   |---3---|   |---3---|   |---3---|   
  E    E   E   E   E   E   E   E   E   E   E   E   
--------------------------------------------------|
--------------------------------------------------|
--8s--11--11--11--11--11--11--11--11--11--11--11--|
--------------------------------------------------|
--------------------------------------------------|
--------------------------------------------------|


  All P.S.                                               
  Q        Q     Q     Q        Q     Q     Q     Q      
-----------------------------|--------------------------|
-----------------------------|--------------------------|
-----------------------------|--------------------------|
-----------------------------|--------------------------|
-----------------------------|--------------------------|
--x\-------x\----x\----x\----|--x\----x\----x\----x\----|


  E   E  Q    H          
-----------------------||
-----------------------||
-----------------------||
-----------------------||
-----------------------||
--x\-------------------||










Guitar # 5:


E||-------|-------|-------|-------|-------|-------|-------|-------|-------|
B||-------|-------|-------|-------|-------|-------|-------|-------|-------|
G||-------|-------|-------|-------|-------|-------|-------|-------|-------|
D||-------|-------|-------|-------|-------|-------|-------|-------|-------|
A||-------|-------|-------|-------|-------|-------|-------|-------|-------|
D||-------|-------|-------|-------|-------|-------|-------|-------|-------|


-------|-------|-------|-------|-------|-------|-------|-------|-------|-------|
-------|-------|-------|-------|-------|-------|-------|-------|-------|-------|
-------|-------|-------|-------|-------|-------|-------|-------|-------|-------|
-------|-------|-------|-------|-------|-------|-------|-------|-------|-------|
-------|-------|-------|-------|-------|-------|-------|-------|-------|-------|
-------|-------|-------|-------|-------|-------|-------|-------|-------|-------|


-------|-------|-------||--------|-------|-------|-------|-------|-------|
-------|-------|-------||--------|-------|-------|-------|-------|-------|
-------|-------|-------||*-------|-------|-------|-------|-------|-------|
-------|-------|-------||*-------|-------|-------|-------|-------|-------|
-------|-------|-------||--------|-------|-------|-------|-------|-------|
-------|-------|-------||--------|-------|-------|-------|-------|-------|


-------|-------|-------|-------|-------|-------|-------|-------|-------|-------|
-------|-------|-------|-------|-------|-------|-------|-------|-------|-------|
-------|-------|-------|-------|-------|-------|-------|-------|-------|-------|
-------|-------|-------|-------|-------|-------|-------|-------|-------|-------|
-------|-------|-------|-------|-------|-------|-------|-------|-------|-------|
-------|-------|-------|-------|-------|-------|-------|-------|-------|-------|


-------|-------|-------|-------|-------|-------|-------|-------|-------|-------|
-------|-------|-------|-------|-------|-------|-------|-------|-------|-------|
-------|-------|-------|-------|-------|-------|-------|-------|-------|-------|
-------|-------|-------|-------|-------|-------|-------|-------|-------|-------|
-------|-------|-------|-------|-------|-------|-------|-------|-------|-------|
-------|-------|-------|-------|-------|-------|-------|-------|-------|-------|


-------|-------|--------||-------|-------|-------|-------|-------|-------|
-------|-------|--------||-------|-------|-------|-------|-------|-------|
-------|-------|-------*||-------|-------|-------|-------|-------|-------|
-------|-------|-------*||-------|-------|-------|-------|-------|-------|
-------|-------|--------||-------|-------|-------|-------|-------|-------|
-------|-------|--------||-------|-------|-------|-------|-------|-------|


                                                                  3x        
-------|-------|-------|-------||--------|-------|-------|--------||-------|
-------|-------|-------|-------||--------|-------|-------|--------||-------|
-------|-------|-------|-------||*-------|-------|-------|-------*||-------|
-------|-------|-------|-------||*-------|-------|-------|-------*||-------|
-------|-------|-------|-------||--------|-------|-------|--------||-------|
-------|-------|-------|-------||--------|-------|-------|--------||-------|


-------|-------|-------|-------|-------|-------|-------|-------|-------|-------|
-------|-------|-------|-------|-------|-------|-------|-------|-------|-------|
-------|-------|-------|-------|-------|-------|-------|-------|-------|-------|
-------|-------|-------|-------|-------|-------|-------|-------|-------|-------|
-------|-------|-------|-------|-------|-------|-------|-------|-------|-------|
-------|-------|-------|-------|-------|-------|-------|-------|-------|-------|


                                          3x                                
-------||--------|-------|-------|--------||-------|-------|-------|-------|
-------||--------|-------|-------|--------||-------|-------|-------|-------|
-------||*-------|-------|-------|-------*||-------|-------|-------|-------|
-------||*-------|-------|-------|-------*||-------|-------|-------|-------|
-------||--------|-------|-------|--------||-------|-------|-------|-------|
-------||--------|-------|-------|--------||-------|-------|-------|-------|


-------|-------|-------|-------|-------|-------|-------|-------|-------|-------|
-------|-------|-------|-------|-------|-------|-------|-------|-------|-------|
-------|-------|-------|-------|-------|-------|-------|-------|-------|-------|
-------|-------|-------|-------|-------|-------|-------|-------|-------|-------|
-------|-------|-------|-------|-------|-------|-------|-------|-------|-------|
-------|-------|-------|-------|-------|-------|-------|-------|-------|-------|


-------|-------|-------|-------|-------|-------|-------|-------|-------|-------|
-------|-------|-------|-------|-------|-------|-------|-------|-------|-------|
-------|-------|-------|-------|-------|-------|-------|-------|-------|-------|
-------|-------|-------|-------|-------|-------|-------|-------|-------|-------|
-------|-------|-------|-------|-------|-------|-------|-------|-------|-------|
-------|-------|-------|-------|-------|-------|-------|-------|-------|-------|


    Riff C1                                                             
                          |-3-|                                         
    W                     E   Q     H.               W                  
----------------------|--------------------------|---------------------|
----------------------|--------------------------|---------------------|
--/11~----------------|--11S--8~----L------------|--10~----------------|
----------------------|--------------------------|---------------------|
---/9-----------------|---9S--6~----L------------|---8~----------------|
----------------------|--------------------------|---------------------|


                                                 |-3-|                   
   W                       W                     E   Q     H.            
--------------------|------------------------|--------------------------|
--------------------|------------------------|--------------------------|
---L----------------|--10g11~----------------|--11S--8~----L------------|
--------------------|------------------------|--------------------------|
---L----------------|----8g9~----------------|---9S--6~----L------------|
--------------------|------------------------|--------------------------|


            End Riff C1                                  
  |-3-|                                                  
  E   Q     H.                        W                  
-------------------------|-------|----------------------|
-------------------------|-------|----------------------|
--8p--7~----L------------|-------|--/11~----------------|
-------------------------|-------|----------------------|
--6p--5~----L------------|-------|---/9-----------------|
-------------------------|-------|----------------------|


   |-3-|                                                              
   E   Q     H.               W                     W                 
--------------------------|---------------------|--------------------|
--------------------------|---------------------|--------------------|
--11S--8~----L------------|--10~----------------|---L----------------|
--------------------------|---------------------|--------------------|
---9S--6~----L------------|---8~----------------|---L----------------|
--------------------------|---------------------|--------------------|


                            |-3-|                     |-3-|                   
      W                     E   Q     H.              E   Q     H.            
------------------------|--------------------------|-------------------------|
------------------------|--------------------------|-------------------------|
--10g11~----------------|--11S--8~----L------------|--8p--7~----L------------|
------------------------|--------------------------|-------------------------|
----8g9~----------------|---9S--6~----L------------|--6p--5~----L------------|
------------------------|--------------------------|-------------------------|


-------|-------|-------|-------|-------|-------|-------|-------|-------|-------|
-------|-------|-------|-------|-------|-------|-------|-------|-------|-------|
-------|-------|-------|-------|-------|-------|-------|-------|-------|-------|
-------|-------|-------|-------|-------|-------|-------|-------|-------|-------|
-------|-------|-------|-------|-------|-------|-------|-------|-------|-------|
-------|-------|-------|-------|-------|-------|-------|-------|-------|-------|


-------|-------|-------|-------|-------|-------|-------|-------||
-------|-------|-------|-------|-------|-------|-------|-------||
-------|-------|-------|-------|-------|-------|-------|-------||
-------|-------|-------|-------|-------|-------|-------|-------||
-------|-------|-------|-------|-------|-------|-------|-------||
-------|-------|-------|-------|-------|-------|-------|-------||










Guitar # 6:


E||-------|-------|-------|-------|-------|-------|-------|-------|-------|
B||-------|-------|-------|-------|-------|-------|-------|-------|-------|
G||-------|-------|-------|-------|-------|-------|-------|-------|-------|
D||-------|-------|-------|-------|-------|-------|-------|-------|-------|
A||-------|-------|-------|-------|-------|-------|-------|-------|-------|
D||-------|-------|-------|-------|-------|-------|-------|-------|-------|


-------|-------|-------|-------|-------|-------|-------|-------|-------|-------|
-------|-------|-------|-------|-------|-------|-------|-------|-------|-------|
-------|-------|-------|-------|-------|-------|-------|-------|-------|-------|
-------|-------|-------|-------|-------|-------|-------|-------|-------|-------|
-------|-------|-------|-------|-------|-------|-------|-------|-------|-------|
-------|-------|-------|-------|-------|-------|-------|-------|-------|-------|


-------|-------|-------||--------|-------|-------|-------|-------|-------|
-------|-------|-------||--------|-------|-------|-------|-------|-------|
-------|-------|-------||*-------|-------|-------|-------|-------|-------|
-------|-------|-------||*-------|-------|-------|-------|-------|-------|
-------|-------|-------||--------|-------|-------|-------|-------|-------|
-------|-------|-------||--------|-------|-------|-------|-------|-------|


-------|-------|-------|-------|-------|-------|-------|-------|-------|-------|
-------|-------|-------|-------|-------|-------|-------|-------|-------|-------|
-------|-------|-------|-------|-------|-------|-------|-------|-------|-------|
-------|-------|-------|-------|-------|-------|-------|-------|-------|-------|
-------|-------|-------|-------|-------|-------|-------|-------|-------|-------|
-------|-------|-------|-------|-------|-------|-------|-------|-------|-------|


-------|-------|-------|-------|-------|-------|-------|-------|-------|-------|
-------|-------|-------|-------|-------|-------|-------|-------|-------|-------|
-------|-------|-------|-------|-------|-------|-------|-------|-------|-------|
-------|-------|-------|-------|-------|-------|-------|-------|-------|-------|
-------|-------|-------|-------|-------|-------|-------|-------|-------|-------|
-------|-------|-------|-------|-------|-------|-------|-------|-------|-------|


-------|-------|--------||-------|-------|-------|-------|-------|-------|
-------|-------|--------||-------|-------|-------|-------|-------|-------|
-------|-------|-------*||-------|-------|-------|-------|-------|-------|
-------|-------|-------*||-------|-------|-------|-------|-------|-------|
-------|-------|--------||-------|-------|-------|-------|-------|-------|
-------|-------|--------||-------|-------|-------|-------|-------|-------|


                                                                  3x        
-------|-------|-------|-------||--------|-------|-------|--------||-------|
-------|-------|-------|-------||--------|-------|-------|--------||-------|
-------|-------|-------|-------||*-------|-------|-------|-------*||-------|
-------|-------|-------|-------||*-------|-------|-------|-------*||-------|
-------|-------|-------|-------||--------|-------|-------|--------||-------|
-------|-------|-------|-------||--------|-------|-------|--------||-------|


-------|-------|-------|-------|-------|-------|-------|-------|-------|-------|
-------|-------|-------|-------|-------|-------|-------|-------|-------|-------|
-------|-------|-------|-------|-------|-------|-------|-------|-------|-------|
-------|-------|-------|-------|-------|-------|-------|-------|-------|-------|
-------|-------|-------|-------|-------|-------|-------|-------|-------|-------|
-------|-------|-------|-------|-------|-------|-------|-------|-------|-------|


                                          3x                                
-------||--------|-------|-------|--------||-------|-------|-------|-------|
-------||--------|-------|-------|--------||-------|-------|-------|-------|
-------||*-------|-------|-------|-------*||-------|-------|-------|-------|
-------||*-------|-------|-------|-------*||-------|-------|-------|-------|
-------||--------|-------|-------|--------||-------|-------|-------|-------|
-------||--------|-------|-------|--------||-------|-------|-------|-------|


-------|-------|-------|-------|-------|-------|-------|-------|-------|-------|
-------|-------|-------|-------|-------|-------|-------|-------|-------|-------|
-------|-------|-------|-------|-------|-------|-------|-------|-------|-------|
-------|-------|-------|-------|-------|-------|-------|-------|-------|-------|
-------|-------|-------|-------|-------|-------|-------|-------|-------|-------|
-------|-------|-------|-------|-------|-------|-------|-------|-------|-------|


-------|-------|-------|-------|-------|-------|-------|-------|-------|-------|
-------|-------|-------|-------|-------|-------|-------|-------|-------|-------|
-------|-------|-------|-------|-------|-------|-------|-------|-------|-------|
-------|-------|-------|-------|-------|-------|-------|-------|-------|-------|
-------|-------|-------|-------|-------|-------|-------|-------|-------|-------|
-------|-------|-------|-------|-------|-------|-------|-------|-------|-------|


                                   |-3-|                    
                                   E   Q      H.            
-------|-------|-------|-------|---------------------------|
-------|-------|-------|-------|--14--11~-----L------------|
-------|-------|-------|-------|---------------------------|
-------|-------|-------|-------|---------------------------|
-------|-------|-------|-------|---------------------------|
-------|-------|-------|-------|---------------------------|


   |--3-|                                                           
   E    Q      H.                                W                  
----------------------------|-------|-------|----------------------|
--11p--10~-----L------------|-------|-------|--/15~----------------|
----------------------------|-------|-------|----------------------|
----------------------------|-------|-------|----------------------|
----------------------------|-------|-------|----------------------|
----------------------------|-------|-------|----------------------|


   |-3-|                                      |--3--|                         
   E   Q      H.               H.             Q     E      W                  
---------------------------|---------------------------|---------------------|
--15--11~-----L------------|--13~-------------L----11--|--10~----------------|
---------------------------|---------------------------|---------------------|
---------------------------|---------------------------|---------------------|
---------------------------|---------------------------|---------------------|
---------------------------|---------------------------|---------------------|


                                                 |--3-|                       
      W                     W                    E    Q      H         Q      
------------------------|--------------------|-------------------------------|
--10g11~----------------|---L----------------|--11p--10~-----L---------L\----|
------------------------|--------------------|-------------------------------|
------------------------|--------------------|-------------------------------|
------------------------|--------------------|-------------------------------|
------------------------|--------------------|-------------------------------|


-------|-------|-------|-------|-------|-------|-------|-------|-------|-------|
-------|-------|-------|-------|-------|-------|-------|-------|-------|-------|
-------|-------|-------|-------|-------|-------|-------|-------|-------|-------|
-------|-------|-------|-------|-------|-------|-------|-------|-------|-------|
-------|-------|-------|-------|-------|-------|-------|-------|-------|-------|
-------|-------|-------|-------|-------|-------|-------|-------|-------|-------|


-------|-------|-------|-------|-------|-------|-------|-------||
-------|-------|-------|-------|-------|-------|-------|-------||
-------|-------|-------|-------|-------|-------|-------|-------||
-------|-------|-------|-------|-------|-------|-------|-------||
-------|-------|-------|-------|-------|-------|-------|-------||
-------|-------|-------|-------|-------|-------|-------|-------||





Duration Legend
---------------
W - whole
H - half
Q - quarter
E - 8th
S - 16th
T - 32nd
X - 64th
. - note dotted
|-n-|  - n-tuplets


Tablature Legend
----------------
L - tied note
x - dead note
g - grace note
(n) - ghost note
> - accentuded note
NH - natural harmonic
AH - artificial harmonic
TH - tapped harmonic
SH - semi harmonic
PH - pitch harmonic
h - hammer on
p - pull off
b - bend
br - bendRelease
pb - preBend
pbr - preBendRelease
brb - bendReleaseBend
\n/ - tremolo bar dip
\n - tremolo bar dive
-/n - tremolo bar Release up
/n\ - tremolo bar inverted dip
/n - tremolo bar return
-\n - tremolo bar Release down
S - shift slide
s - legato slide
/ -  slide into from below or out of upwards
\ -  slide into from above or out of downwards
~ - vibrato
W - wide vibrato
tr - trill
TP - tremolo picking
T - tapping
S - slap
P - pop
< - fade in
^ - brush up
v - brush down

            
            
Suggest correction
Creating personal tab
Creating personal tab
You can edit any tab online and save it as your Personal.

You can edit, replace or remove any tab part or add personal notes – all changes will be seen only by you.

Personal tabs can be accessed anytime from any device, even offline.
Learn more »
Give kudos to tab author, rate the tab!
1 2 3 4 5
comments
print report bad tab
3 comments total.
0 reply
L.A.H93 10 Dec 25, 2008 07:57 PM

this tab's 5*

0 reply
Warlock-Revenge 30 Jun 29, 2009 08:00 PM

Except for theres not 6 guitars...

0 reply
arthurm23 10 Jun 02, 2010 04:22 AM

yeah but they overdub don't they

guest
Wanna post a correction for this tab? Suggest correction