Oops, an error
Loading. Please wait.
We have an official Set To Fail tab made by UG professional guitarists. Check out the tab »
×
9,786 views 27 this week
no commentswrite comment
1 2 3 4 5
x 4
add to favorites
×
Save as Personal and add changes to this tab that will be seen only by you. Learn more ›
×
You can save this tab as Personal to edit and correct it or add notes. All changes will be seen only by you. Learn more »
launch autoscroll
font size
0
reset
how to read this tab
guitar tuner
backing track
0:00
0:00
edit
Autoscroll
slow
fast
+/-
esc
set tempo
stop
-------------------------------------------------------------------------------
                             "Set To Fail" --- Lamb of God
-------------------------------------------------------------------------------


Tabbed by: [travis]


Key: G Major === G A B C D E F# 


Tuning === Drop D (D A D G B E) low to high


Legend:

... = palm mute
h = hammer on
p = pull off
b = bend
pb = pre bend
__ = hold bend
.5 = half step
1 = whole step 
1.5 = step and half
2 = two whole steps
* = pinch harmonic
/ = slide up
\ = slide down
! = tremelo pick
T = tap
~ = vibrato
() = note not picked / bent note back to normal
x/x/ = pickslide up
x\x\ = pickslide down


======================
Intro: 

Guitars 1 and 2:
e|-----------------------------------------------------------------|
B|-----------------------------------------------------------------|
G|-----------------------------------------------------------------|
D|-----------------------------------------------------------------|
A|-2-2-2-3-2-2-2-3-2-2-2-3-2-2-2-3-2-2-2-3-2-2-2-3-2-2-2-3-2-2-2-2-|
D|-2-2-2-3-2-2-2-3-2-2-2-3-2-2-2-3-2-2-2-3-2-2-2-3-2-2-2-3-2-2-2-2-|
   .....   .....   .....   .....   .....   .....   .....   .......   

======================
Guitars 1 and 2:
e|-------------------------------------------------------------------------------------------------|
B|-------------------------------------------------------------------------------------------------|
G|-------------------------------------------------------------------------------------------------|
D|-------------------------------------------------------------------------------------------------|
A|-3-2-2-2-3-2-2-2-3-2-2-2-3-2-2-2-3-2-2-2-3-2-2-2-3-2-2-2-3-2-2-2-2-2-2-3-2-2-2-3-2-2-2-3-2-2-2-3-|
D|-3-2-2-2-3-2-2-2-3-2-2-2-3-2-2-2-3-2-2-2-3-2-2-2-3-2-2-2-3-2-2-2-2-2-2-3-2-2-2-3-2-2-2-3-2-2-2-3-|
     .....   .....   .....   .....   .....   .....   .....   ...........   .....   .....   .....

======================
Guitars 1 and 2:
e|-------------------------------------------------------------------------------------|
B|-------------------------------------------------------------------------------------|
G|-------------------------------------------------------------------------------------|
D|-------------------------------------------------------------------------------------|
A|-2-2-2-3-2-2-2-3-2-2-2-3-2-2-2-2-3-2-2-2-3-2-2-2-3-2-2-2-3-2-2-2-3-2-2-2-2-2-2-2--2--|
D|-2-2-2-3-2-2-2-3-2-2-2-3-2-2-2-2-3-2-2-2-3-2-2-2-3-2-2-2-3-2-2-2-3-2-2-2-2-2-2-2--2--|
   .....   .....   .....   .......   .....   .....   .....   .....

=======================
Guitars 1 and 2:
                                                                      1__
e|------------------------------------------------------------------------------------|
B|------------------------------------------------------------------------------------|
G|------------------------------------------------------------------------------------|
D|------------------------------------------------------------------------------------|
A|------------------------------------------------------------------------------------|
D|-3-2-0-5~~2-2-2-3-0-5~~2-2-2-3-0-5~~2-2-2-2-2-2-0-2-2-2-3-2-0-8~~(8)b~~2-2-2-3-0-5~~|

Guitars 1 and 2:
e|------------------------------------------------------------------------------------|
B|------------------------------------------------------------------------------------|
G|------------------------------------------------------------------------------------|
D|------------------------------------------------------------------------------------|
A|-------------------3-2-0-12~~-------------------------------------------------------|
D|-2-2-2-2-2-2-0-2-2-3-2-0-12~~2-2-2-3-0-5~~2-2-2-3-0-5~~2-2-2-2-2-2-0-2-2-2-3-2-0-3~~|
                     .....

Guitars 1 and 2:
                                                                1__
e|-----------------------------------------------------------------|
B|-----------------------------------------------------------------|
G|-----------------------------------------------------------------|
D|-----------------------------------------------------------------|
A|--------------------------2-2-2-3-3-3-4-4-4-5-5-5-3-2-0----------|
D|-2-2-2-3-0-3~~2-2-2-3-0-5-2-2-2-3-3-3-4-4-4-5-5-5-3-2-0-5~~(5)b~~|
                            .............................

End of Intro.
=========================
Verse 1:

Guitars 1 and 2:
                                                                   1__
e|----------------------------------------------------------------------------|
B|----------------------------------------------------------------------------|
G|----------------------------------------------------------------------------|
D|----------------------------------------------------------------------------|
A|-2-2-2-3-2-2-2-3-2-2-2-3-2-2-2-3-2-2-2-3-2-2-2-3-2-2----------------2-2-2-3-|
D|-2-2-2-3-2-2-2-3-2-2-2-3-2-2-2-3-2-2-2-3-2-2-2-3-2-2-3-2-0-8~~(8)b~~2-2-2-3-|
   .....   .....   .....   .....   .....   .....   ...                .....

Guitars 1 and 2:
                                                           1__
e|----------------------------------------------------------------------------|
B|----------------------------------------------------------------------------|
G|----------------------------------------------------------------------------|
D|----------------------------------------------------------------------------|
A|-2-2-2-3-2-2-2-3-2-2-2-3-2-2-2-3-2-2-2-3-2-2----------------2-2-2-3-2-2-2-3-|
D|-2-2-2-3-2-2-2-3-2-2-2-3-2-2-2-3-2-2-2-3-2-2-3-2-0-5~~(5)b~~2-2-2-3-2-2-2-3-|
   .....   .....   .....   .....   .....   ...                .....   .....

Guitars 1 and 2:
                                                   1__
e|--------------------------------------------------------------------|
B|--------------------------------------------------------------------|
G|--------------------------------------------------------------------|
D|--------------------------------------------------------------------|
A|-2-2-2-3-2-2-2-3-2-2-2-3-2-2-2-3-2-2----------------2-2-2-3-2-2-2-3-|
D|-2-2-2-3-2-2-2-3-2-2-2-3-2-2-2-3-2-2-3-2-0-8~~(8)b~~2-2-2-3-2-2-2-3-|
   .....   .....   .....   .....   ...                .....   .....

Guitars 1 and 2:
e|---------------------------------------------|
B|---------------------------------------------|
G|---------------------------------------------|
D|---------------------------------------------|
A|-2-2-2-3-2-2-5-------5---5-------------------|
D|-2-2-2-3-2-2---2-0-2---2---2-5-4-3-0-3-0-6-3-|
   .....   ...

End of Verse 1.
========================
Pre Chorus 1:

Guitars 1 and 2:
e|----------------------------------------------------------------|
B|----------------------------------------------------------------|
G|----------------------------------------------------------------|
D|----------------------------------------------------------------|
A|----------------------------------------------------------------|
D|-0-0-0-10~~0--12--0-0-0-0-0-3*~~~0-0-0-7~~3--7--6-2-0-1-5-1-0-3-|
   .....     .      .........      .....

Guitars 1 and 2:
e|----------------------------------------------------------------|
B|----------------------------------------------------------------|
G|----------------------------------------------------------------|
D|----------------------------------------------------------------|
A|----------------------------------------------------------------|
D|-0-0-0-10~~0--12--0-0-0-0-0-3*~~~0-0-0-7~~3--7--6-2-0-1-5-1-0-3-|
   .....     .      .........      .....

========================
Guitars 1 and 2:
e|----------------------------------------------------------------------------|
B|----------------------------------------------------------------------------|
G|----------------------------------------------------------------------------|
D|----------------------------------------------------------------------------|
A|-------10~~---12--------10~~---12-----------------------6-5-3-0-3-------10~~|
D|-0-0-0-10~~0--12--0-0-0-10~~0--12--0-0-0-7~~3--7--0-0-0-6-5-3-0-3-0-0-0-10~~|
   .....     .      .....     .      .....          .....           .....

Guitars 1 and 2:
e|----------------------------------------------------------|
B|----------------------------------------------------------|
G|----------------------------------------------------------|
D|----------------------------------------------------------|
A|----12--------10~~---12--2-2-2-3-3-3-4-4-4-5-5-5----------|
D|-0--12--0-0-0-10~~0--12--2-2-2-3-3-3-4-4-4-5-5-5-3-2-0-5~~|
   .      .....     .      .......................

End of Pre Chorus 1.
=========================
Chorus 1:

Guitars 1 and 2:
                                                             1__
e|---------------------------------------------------------------------------|
B|---------------------------------------------------------------------------|
G|---------------------------------------------------------------------------|
D|---------------------------------------------------------------------------|
A|---------------------------------------------------------------------------|
D|-2-2-2-3-0-5~~2-2-2-3-0-5~~2-2-2-2-2-2-0-2-2-2-3-2-0-8~~(8)b~~2-2-2-3-0-5~~|

Guitars 1 and 2:
e|-------------------------------------------------------------------------------------------------|
B|-------------------------------------------------------------------------------------------------|
G|-------------------------------------------------------------------------------------------------|
D|-------------------------------------------------------------------------------------------------|
A|----------------------------------3-2-0-12~~-----------------------------------------------------|
D|-2-2-2-3-0-5~~2-2-2-2-2-2-0-2-2-2-3-2-0-12~~2-2-2-3-0-5~~2-2-2-3-0-5~~2-2-2-2-2-2-0-2-2-2-3-2-0-3|
                                    .....

Guitars 1 and 2:
                                                                1__
e|-----------------------------------------------------------------|
B|-----------------------------------------------------------------|
G|-----------------------------------------------------------------|
D|-----------------------------------------------------------------|
A|--------------------------2-2-2-3-3-3-4-4-4-5-5-5-3-2-0----------|
D|-2-2-2-3-0-3~~2-2-2-3-0-5-2-2-2-3-3-3-4-4-4-5-5-5-3-2-0-5~~(5)b~~|
                            .............................

End of Chorus 1.
==========================
Verse 2:

Guitars 1 and 2:
                                                                   1__
e|----------------------------------------------------------------------------|
B|----------------------------------------------------------------------------|
G|----------------------------------------------------------------------------|
D|----------------------------------------------------------------------------|
A|-2-2-2-3-2-2-2-3-2-2-2-3-2-2-2-3-2-2-2-3-2-2-2-3-2-2----------------2-2-2-3-|
D|-2-2-2-3-2-2-2-3-2-2-2-3-2-2-2-3-2-2-2-3-2-2-2-3-2-2-3-2-0-8~~(8)b~~2-2-2-3-|
   .....   .....   .....   .....   .....   .....   ...                .....

Guitars 1 and 2:
                                                           1__
e|----------------------------------------------------------------------------|
B|----------------------------------------------------------------------------|
G|----------------------------------------------------------------------------|
D|----------------------------------------------------------------------------|
A|-2-2-2-3-2-2-2-3-2-2-2-3-2-2-2-3-2-2-2-3-2-2----------------2-2-2-3-2-2-2-3-|
D|-2-2-2-3-2-2-2-3-2-2-2-3-2-2-2-3-2-2-2-3-2-2-3-2-0-5~~(5)b~~2-2-2-3-2-2-2-3-|
   .....   .....   .....   .....   .....   ...                .....   .....

Guitars 1 and 2:
                                                   1__
e|--------------------------------------------------------------------|
B|--------------------------------------------------------------------|
G|--------------------------------------------------------------------|
D|--------------------------------------------------------------------|
A|-2-2-2-3-2-2-2-3-2-2-2-3-2-2-2-3-2-2----------------2-2-2-3-2-2-2-3-|
D|-2-2-2-3-2-2-2-3-2-2-2-3-2-2-2-3-2-2-3-2-0-8~~(8)b~~2-2-2-3-2-2-2-3-|
   .....   .....   .....   .....   ...                .....   .....

Guitars 1 and 2:
e|---------------------------------------------|
B|---------------------------------------------|
G|---------------------------------------------|
D|---------------------------------------------|
A|-2-2-2-3-2-2-5-------5---5-------------------|
D|-2-2-2-3-2-2---2-0-2---2---2-5-4-3-0-3-0-6-3-|
   .....   ...

End of Verse 2.
========================
Pre Chorus 2:

Guitars 1 and 2:
e|----------------------------------------------------------------|
B|----------------------------------------------------------------|
G|----------------------------------------------------------------|
D|----------------------------------------------------------------|
A|----------------------------------------------------------------|
D|-0-0-0-10~~0--12--0-0-0-0-0-3*~~~0-0-0-7~~3--7--6-2-0-1-5-1-0-3-|
   .....     .      .........      .....

Guitars 1 and 2:
e|----------------------------------------------------------------|
B|----------------------------------------------------------------|
G|----------------------------------------------------------------|
D|----------------------------------------------------------------|
A|----------------------------------------------------------------|
D|-0-0-0-10~~0--12--0-0-0-0-0-3*~~~0-0-0-7~~3--7--6-2-0-1-5-1-0-3-|
   .....     .      .........      .....

========================
Guitars 1 and 2:
e|----------------------------------------------------------------------------|
B|----------------------------------------------------------------------------|
G|----------------------------------------------------------------------------|
D|----------------------------------------------------------------------------|
A|-------10~~---12--------10~~---12-----------------------6-5-3-0-3-------10~~|
D|-0-0-0-10~~0--12--0-0-0-10~~0--12--0-0-0-7~~3--7--0-0-0-6-5-3-0-3-0-0-0-10~~|
   .....     .      .....     .      .....          .....           .....

Guitars 1 and 2:
e|----------------------------------------------------------|
B|----------------------------------------------------------|
G|----------------------------------------------------------|
D|----------------------------------------------------------|
A|----12--------10~~---12--2-2-2-3-3-3-4-4-4-5-5-5----------|
D|-0--12--0-0-0-10~~0--12--2-2-2-3-3-3-4-4-4-5-5-5-3-2-0-5~~|
   .      .....     .      .......................

End of Pre Chorus 2.
=========================
Chorus 2:

Guitars 1 and 2:
                                                             1__
e|---------------------------------------------------------------------------|
B|---------------------------------------------------------------------------|
G|---------------------------------------------------------------------------|
D|---------------------------------------------------------------------------|
A|---------------------------------------------------------------------------|
D|-2-2-2-3-0-5~~2-2-2-3-0-5~~2-2-2-2-2-2-0-2-2-2-3-2-0-8~~(8)b~~2-2-2-3-0-5~~|

Guitars 1 and 2:
e|-------------------------------------------------------------------------------------------------|
B|-------------------------------------------------------------------------------------------------|
G|-------------------------------------------------------------------------------------------------|
D|-------------------------------------------------------------------------------------------------|
A|----------------------------------3-2-0-12~~-----------------------------------------------------|
D|-2-2-2-3-0-5~~2-2-2-2-2-2-0-2-2-2-3-2-0-12~~2-2-2-3-0-5~~2-2-2-3-0-5~~2-2-2-2-2-2-0-2-2-2-3-2-0-3|
                                    .....

Guitars 1 and 2:
e|--------------------------------------------------------------|
B|--------------------------------------------------------------|
G|--------------------------------------------------------------|
D|--------------------------------------------------------------|
A|--------------------------2-2-2-3-3-3-4-4-4-5-5-5-10-10-10-10-|
D|-2-2-2-3-0-3~~2-2-2-3-0-5-2-2-2-3-3-3-4-4-4-5-5-5-10-10-10-10-|
                            .......................

End of Chorus 2.
=========================
Pre Solo:

Guitar 1:
e|-------------------------------------------------------------------|
B|-------------------------------------------------------------------|
G|-------------------------------------------------------------------|
D|-------------------------------------------------------------------| x2
A|-------------------------------------------------------------------|
D|-2-2-2-2-2-2-2200-2-2-2-2-2-2-2200-2-2-2-2-2-2-2-0-2-5-2-0-7-5-2-5-|
   .................................................................

=========================
Guitars 1 and 2:
e|-------------------------------------------------------------------|
B|-------------------------------------------------------------------|
G|-------------------------------------------------------------------|
D|-------------------------------------------------------------------| x2
A|-------------------------------------------------------------------|
D|-2-2-2-2-2-2-2200-2-2-2-2-2-2-2200-2-2-2-2-2-2-2-0-2-5-2-0-7-5-2-5-|
   .................................................................

Guitar 3:
e|---------------------------------------------------------------|
B|---------------------------------------------------------------|
G|-9~~~~~~~~~~~~~~~~~~~~~~~~~~~~~~~~~~~~~~~~~~~~-----------------|
D|---------------------------------------------------------------|
A|----------------------------------------------x/x/x/x/x/x/x/x/-|
D|----------------------------------------------x/x/x/x/x/x/x/x/-|


End of Pre Solo.
===========================
Guitar Solo:

Guitar 3:
                                                1___
e|--------------------------------------------------------------------------------------|
B|--------------------------------------------------------------------------------------|
G|-------------12--------------------12----12-14b*~~(14)p12----14-12----12--------------|
D|-14-12-14-12----14-12-14~~14-14-14----14------------------14-------14----14-12-14~~~~~|
A|--------------------------------------------------------------------------------------|
D|--------------------------------------------------------------------------------------|

Guitar 3:
            1_____1.5___        2____
e|-/12-------------------------------------------------------------------------|
B|-----12-15b~~~(15)b~~~(15)-15pb~~~~15p12----12h15p12----12----12h15p12-15p12-|
G|-----------------------------------------15----------14----15----------------|
D|-----------------------------------------------------------------------------|
A|-----------------------------------------------------------------------------|
D|-----------------------------------------------------------------------------|

Guitar 3:
                                                 1_________________________________
e|--------------------------------------------/17b~~~~17~~17~~17---17~~17--17~~17~~(17)-|
B|----12--------------------------------------------------------------------------------|
G|-15----15p12-15p12p11-/14p11p9-12*~~~~~~----------------------------------------------|
D|--------------------------------------------------------------------------------------|
A|--------------------------------------------------------------------------------------|
D|----------------------------------------17p\------------------------------------------|

Guitar 3:
     1__
e|-17b~~(17)p15----17-15------------------------------------------------------------|
B|--------------17-------17-15--17~~~~~------------------12p11----11----------------|
G|----------------------------------------------11-12-14-------14----14-12-11-12-14-|
D|-------------------------------------11-12-14-------------------------------------|
A|----------------------------------------------------------------------------------|
D|----------------------------------------------------------------------------------|
                                       .................       ..

Guitar 3:
                                2_____     1.5___________
e|-------------------------12---------------------------------|
B|-11h12-14-12-14-15-14-15----20b~~~~~(20)/22b~~~~~~~~~~~-----|
G|------------------------------------------------------------|
D|------------------------------------------------------------|
A|------------------------------------------------------------|
D|-------------------------------------------------------12p\-|

+++++
+++++
Rhythm For Solo:

Guitars 1 and 2:
e|-----------------------------------------------------------------|
B|-----------------------------------------------------------------|
G|-----------------------------------------------------------------|
D|-----------------------------------------------------------------| x2
A|-----------------------------------------------------------------|
D|-2-2-2-2-2-2-0-2~~2-2-2-2-2-2-0-2~~2-2-2-2-2-2-0-2-5-2-0-7-5-2-5-|

Guitars 1 and 2:
e|-------------------------------------------------------------------------------------------------|
B|-------------------------------------------------------------------------------------------------|
G|-------------------------------------------------------------------------------------------------|
D|-------------------------------------------------------------------------------------------------|
A|-------------------------------------------------------------------------------------------------|
D|-2-2-2-2-2-2-0-2~~2-2-2-2-2-2-0-2~~2-2-2-2-2-2-0-2-5-2-0-7-5-2-5-2-2-2-2-2-2-0-2~~2-2-2-2-2-2-0-2|

End of Rhythm.

End of Guitar Solo.
=================================
Pre Chorus 3:

Guitars 1 and 2:
e|----------------------------------------------------------------|
B|----------------------------------------------------------------|
G|----------------------------------------------------------------|
D|----------------------------------------------------------------|
A|----------------------------------------------------------------|
D|-0-0-0-10~~0--12--0-0-0-0-0-3*~~~0-0-0-7~~3--7--6-2-0-1-5-1-0-3-|
   .....     .      .........      .....

Guitars 1 and 2:
e|----------------------------------------------------------------|
B|----------------------------------------------------------------|
G|----------------------------------------------------------------|
D|----------------------------------------------------------------|
A|----------------------------------------------------------------|
D|-0-0-0-10~~0--12--0-0-0-0-0-3*~~~0-0-0-7~~3--7--6-2-0-1-5-1-0-3-|
   .....     .      .........      .....

========================
Guitars 1 and 2:
e|----------------------------------------------------------------------------|
B|----------------------------------------------------------------------------|
G|----------------------------------------------------------------------------|
D|----------------------------------------------------------------------------|
A|-------10~~---12--------10~~---12-----------------------6-5-3-0-3-------10~~|
D|-0-0-0-10~~0--12--0-0-0-10~~0--12--0-0-0-7~~3--7--0-0-0-6-5-3-0-3-0-0-0-10~~|
   .....     .      .....     .      .....          .....           .....

Guitars 1 and 2:
e|----------------------------------------------------------|
B|----------------------------------------------------------|
G|----------------------------------------------------------|
D|----------------------------------------------------------|
A|----12--------10~~---12--2-2-2-3-3-3-4-4-4-5-5-5----------|
D|-0--12--0-0-0-10~~0--12--2-2-2-3-3-3-4-4-4-5-5-5-3-2-0-5~~|
   .      .....     .      .......................

End of Pre Chorus 3.
=========================
Chorus 3:

Guitars 1 and 2:
                                                             1__
e|---------------------------------------------------------------------------|
B|---------------------------------------------------------------------------|
G|---------------------------------------------------------------------------|
D|---------------------------------------------------------------------------|
A|---------------------------------------------------------------------------|
D|-2-2-2-3-0-5~~2-2-2-3-0-5~~2-2-2-2-2-2-0-2-2-2-3-2-0-8~~(8)b~~2-2-2-3-0-5~~|

Guitars 1 and 2:
e|-------------------------------------------------------------------------------------------------|
B|-------------------------------------------------------------------------------------------------|
G|-------------------------------------------------------------------------------------------------|
D|-------------------------------------------------------------------------------------------------|
A|----------------------------------3-2-0-12~~-----------------------------------------------------|
D|-2-2-2-3-0-5~~2-2-2-2-2-2-0-2-2-2-3-2-0-12~~2-2-2-3-0-5~~2-2-2-3-0-5~~2-2-2-2-2-2-0-2-2-2-3-2-0-3|
                                    .....

Guitars 1 and 2:
                                                                
e|-------------------------------------------------------------|
B|-------------------------------------------------------------|
G|-------------------------------------------------------------|
D|-------------------------------------------------------------|
A|--------------------------2-2-2-3-3-3-4-4-4-5-5-5-3-2-0------|
D|-2-2-2-3-0-3~~2-2-2-3-0-5-2-2-2-3-3-3-4-4-4-5-5-5-3-2-0-5~~~~|
                            .............................

==========================
Guitars 1 and 2:
                                                             1__
e|---------------------------------------------------------------------------|
B|---------------------------------------------------------------------------|
G|---------------------------------------------------------------------------|
D|---------------------------------------------------------------------------|
A|---------------------------------------------------------------------------|
D|-2-2-2-3-0-5~~2-2-2-3-0-5~~2-2-2-2-2-2-0-2-2-2-3-2-0-8~~(8)b~~2-2-2-3-0-5~~|

Guitars 1 and 2:
e|-------------------------------------------------------------------------------------------------|
B|-------------------------------------------------------------------------------------------------|
G|-------------------------------------------------------------------------------------------------|
D|-------------------------------------------------------------------------------------------------|
A|----------------------------------3-2-0-12~~-----------------------------------------------------|
D|-2-2-2-3-0-5~~2-2-2-2-2-2-0-2-2-2-3-2-0-12~~2-2-2-3-0-5~~2-2-2-3-0-5~~2-2-2-2-2-2-0-2-2-2-3-2-0-3|
                                    .....

Guitars 1 and 2:
e|-----------------------------------------------------------------------|
B|-----------------------------------------------------------------------|
G|-----------------------------------------------------------------------|
D|-----------------------------------------------------------------------|
A|--------------------------2-2-2-3-3-3-4-4-4-5-5-5-10-10-10-2~~~~~~~~~~-|
D|-2-2-2-3-0-3~~2-2-2-3-0-5-2-2-2-3-3-3-4-4-4-5-5-5-10-10-10-2~~~~~~~~~~-|
                            .......................

Please Rate And Comment.
Thanks.
[travis]

            
            
Suggest correction
Creating personal tab
Creating personal tab
You can edit any tab online and save it as your Personal.

You can edit, replace or remove any tab part or add personal notes – all changes will be seen only by you.

Personal tabs can be accessed anytime from any device, even offline.
Learn more »
comments
print report bad tab
guest
You may want to rate the tab now too:
select rating
Wanna post a correction for this tab? Suggest correction