Oops, an error
Loading. Please wait.

The Duke Tab

version 1
version 1

Solo

Whole song

  • Credited drawnacrol for the solo tab.
1,315 views 51 this week
no commentswrite comment
1 2 3 4 5
3 more votes to show rating
add to favorites
launch autoscroll
font size
0
reset
how to read this tab
guitar tuner
Autoscroll
slow
fast
+/-
esc
set tempo
stop
Help us to improve Ultimate-Guitar.com Take our survey!
×
Author
Difficulty
Tuning
Tabbers playing skills
intermediate
D A D G B E
advanced +
Artist: Lamb of God
Song: The Duke
Tuning: Drop D ( D A D G B E ) 
Tabbed by Lorcan Ward

Guitar Cover video:
https://www.youtube.com/watch?v=7eUssGv21VM

Solo starts at 3:10

E|----------------------------------------------------------------------|
B|--18b20-------pr20~~~~~~~----18p15--18/20\18p15--18p15------15--------|
G|--ph------------ph--------------------------------------17-----17p15--|
D|----------------------------------------------------------------------|
A|----------------------------------------------------------------------|
D|----------------------------------------------------------------------|

E|----------------------------------------------------------------------|
B|----------------------------------------------------------------------|
G|------15--17b18r17p15------17--17------15-----------------------------|
D|--17-------------------17----------17------17--15------15-------------|
A|---------------------------------------------------17------17--16--15-|
D|----------------------------------------------------------------.---.-|

E|----------------------------------------------------------------------|
B|--------------------------------------------------------15~-----------|
G|----------ph----------------15--------17b18r17p15-------15~-----------|
D|----------15------15--17--------17----ph-----------17--------17--15---|
A|--16--17------17---.---.----------------------------------------------|
D|---.---.-------.------------------------------------------------------|
 
E|--20b22----------20b22r20---15--18p17p15-18p17p15------15-------------|
B|---------------------------------------------------18------15h18p15---|
G|----------------------------------------------------------------------|
D|----------------------------------------------------------------------|
A|----------------------------------------------------------------------|
D|----------------------------------------------------------------------|

E|----------------------------------------------------------------------|
B|------15--------------------------------------------------------------|
G|--17------17p15--17p15----15---------17b19--rb17b19-rb17b19~~~~\------|
D|------------------------------17p15-----------------------------------|
A|----------------------------------------------------------------------|
D|----------------------------------------------------------------------|

E|----------------------------------------------------------------------|
B|----------------------------------------------------------------------|
G|-\-\--15--15\14--14/15--15/17--17b18r17p15--17\15--15\14--15\14p12h14-|
D|----------------------------------------------------------------------|
A|----------------------------------------------------------------------|
D|----------------------------------------------------------------------|

E|-----------------------------------------------------------10---------|
B|--------------------------------------13--------13b15------13b15------|
G|----------------------14------14--15------15--------------------------|
D|--17--15--14--15--17------17------------------------------------------|
A|----------------------------------------------------------------------|
D|----------------------------------------------------------------------|

E|--10--------(10)------------------------------------------------------|
B|--13b15------13b15r13\--------18b20-----r18-----(18)b20~~~~~~---------|
G|----------------------------------------------------------------------|
D|----------------------------------------------------------------------|
A|----------------------------------------------------------------------|
D|----------------------------------------------------------------------|

E|--15--17--18--17h18p17p15------15-------------------------------------|
B|---------------------------18------18--17--15--18--17--15------15--17-|
G|-----------------------------------------------------------18---------|
D|----------------------------------------------------------------------|
A|----------------------------------------------------------------------|
D|----------------------------------------------------------------------|

E|------15---18-17-15----------20-18-17-----------20b22~~~~~~-----------|
B|--18----------------18-17-15----------20-18-17------------------------|
G|----------------------------------------------------------------------|
D|----------------------------------------------------------------------|
A|----------------------------------------------------------------------|
D|----------------------------------------------------------------------|


***********************************************

| h   Hammer-on
| p   Pull-off
| r   Release
| b   Bend
| br  Bend release
| pb  Pre-bend
| /   Slide up
| \   Slide down
| ~   Vibrato
| ph  Pinch harmonic
|  .  Palm Mute

***********************************************
Suggest correction
Give kudos to tab author, rate the tab!
1 2 3 4 5
comments
print report bad tab
guest
You may want to rate the tab now too:
select rating
Wanna post a correction for this tab? Suggest correction