Oops, an error
Loading. Please wait.

The Duke Tab

version 1
version 1

Whole song

  • Credited drawnacrol for the solo tab.
361 views 57 this week
no commentswrite comment
1 2 3 4 5
x 3
add to favorites
launch autoscroll
font size
0
reset
how to read this tab
guitar tuner
Autoscroll
slow
fast
+/-
esc
set tempo
stop
Help us to improve Ultimate-Guitar.com Take our survey!
×
Author
Difficulty
Tuning
intermediate
D A D G B E
About this tab version
Credited drawnacrol for the solo tab. Was this info helpful? Yes No
E|-3-------3--------3-----------------|
B|---3-------3--------6-----3h4h3---3-|
G|-----5-------5--------7---------5---|          2x (Clean intro part)
D|-------5-------5--------5-----------|
A|------------------------------------|
D|------------------------------------|

E|-3---------------|
B|---6-----3h4h3-3-|
G|-----7--------5--|
D|-------5---------|
A|-----------------|
D|-----------------|

E|-----------------------|
B|-----------------------|
G|-----------------------|
D|-6-55-8-55-3-5-6-5-3-5-| 3x
A|-6-55-8-55-3-5-6-5-3-5-|
D|-6-55-8-55-3-5-6-5-3-5-|

E|-------------------|
B|-------------------|
G|-------------------|
D|888888-777777-6666-|
A|888888-777777-6666-|
D|888888-777777-6666-|

E|-----------------------|
B|-----------------------|
G|-----------------------|
D|-6-55-8-55-3-5-6-5-3-5-| 3x
A|-6-55-8-55-3-5-6-5-3-5-|
D|-6-55-8-55-3-5-6-5-3-5-|


E|---------------------|
B|---------------------|
G|---------------------|
D|888888-777777-6666-5-|
A|888888-777777-6666-5-|
D|888888-777777-6666-5-|

E|------|
B|------|
G|------|
D|------|
A|------|
D|16/1--|

 E|----------------------------------------------------------------------------------------------|
 B|----------------------------------------------------------------------------------------------|
 G|----------------------------------------------------------------------------------------------| 4x
 D|----------------------------------------------------------------------------------------8-333-|
 A|----------------------------------------------------------------------------------------8-333-|
 D|-3-555555-3-6666-3-5-6-8888-999999-888888-6666-3-555555-3-6666-3-5-6-8888-999999-888888-8-333-|
pm  . ...... . .... . . . .... ...... ...... .... . ...... . .... . . . .... ...... ...... 

E|-3-------3--------3-----------------|
B|---3-------3--------6-----3h4h3---3-|
G|-----5-------5--------7---------5---|          2x (Clean intro part starts playing after the riff above is 
D|-------5-------5--------5-----------|             played twice)
A|------------------------------------|
D|------------------------------------|


E|-------------|
B|-------------|
G|-------------| 4x
D|-6666-5-5-55-|
A|-6666-5-5-55-|
D|-6666-5-5-55-|

E|------|
B|------|
G|------|
D|------|
A|------|
D|-16/1-|

Song pretty much repeats itself from here until you reach the riff below and the solo

 E|---------------------------------------------------------------------|
 B|---------------------------------------------------------------------|
 G|---------------------------------------------------------------------| play until solo starts 
 D|---------------------------------------------------------------------|
 A|---------------------------------------------------------------------|
 D|-5^h6h5-0-3-0-5-0-6-5-00000000-5^h6h5-0-3-0-5-00-8^h9h8-00-6^h8h6-00-|
pm         .   .   .     ........        .   .   ..        ..        ..

solo (credit: drawnacrol)

E|----------------------------------------------------------------------|
B|--18b20-------pr20~~~~~~~----18p15--18/20\18p15--18p15------15--------|
G|--ph------------ph--------------------------------------17-----17p15--|
D|----------------------------------------------------------------------|
A|----------------------------------------------------------------------|
D|----------------------------------------------------------------------|

E|----------------------------------------------------------------------|
B|----------------------------------------------------------------------|
G|------15--17b18r17p15------17--17------15-----------------------------|
D|--17-------------------17----------17------17--15------15-------------|
A|---------------------------------------------------17------17--16--15-|
D|----------------------------------------------------------------.---.-|

E|----------------------------------------------------------------------|
B|--------------------------------------------------------15~-----------|
G|----------ph----------------15--------17b18r17p15-------15~-----------|
D|----------15------15--17--------17----ph-----------17--------17--15---|
A|--16--17------17---.---.----------------------------------------------|
D|---.---.-------.------------------------------------------------------|
 
E|--20b22----------20b22r20---15--18p17p15-18p17p15------15-------------|
B|---------------------------------------------------18------15h18p15---|
G|----------------------------------------------------------------------|
D|----------------------------------------------------------------------|
A|----------------------------------------------------------------------|
D|----------------------------------------------------------------------|

E|----------------------------------------------------------------------|
B|------15--------------------------------------------------------------|
G|--17------17p15--17p15----15---------17b19--rb17b19-rb17b19~~~~\------|
D|------------------------------17p15-----------------------------------|
A|----------------------------------------------------------------------|
D|----------------------------------------------------------------------|

E|----------------------------------------------------------------------|
B|----------------------------------------------------------------------|
G|-\-\--15--15\14--14/15--15/17--17b18r17p15--17\15--15\14--15\14p12h14-|
D|----------------------------------------------------------------------|
A|----------------------------------------------------------------------|
D|----------------------------------------------------------------------|

E|-----------------------------------------------------------10---------|
B|--------------------------------------13--------13b15------13b15------|
G|----------------------14------14--15------15--------------------------|
D|--17--15--14--15--17------17------------------------------------------|
A|----------------------------------------------------------------------|
D|----------------------------------------------------------------------|

E|--10--------(10)------------------------------------------------------|
B|--13b15------13b15r13\--------18b20-----r18-----(18)b20~~~~~~---------|
G|----------------------------------------------------------------------|
D|----------------------------------------------------------------------|
A|----------------------------------------------------------------------|
D|----------------------------------------------------------------------|

E|--15--17--18--17h18p17p15------15-------------------------------------|
B|---------------------------18------18--17--15--18--17--15------15--17-|
G|-----------------------------------------------------------18---------|
D|----------------------------------------------------------------------|
A|----------------------------------------------------------------------|
D|----------------------------------------------------------------------|

E|------15---18-17-15----------20-18-17-----------20b22~~~~~~-----------|
B|--18----------------18-17-15----------20-18-17------------------------|
G|----------------------------------------------------------------------|
D|----------------------------------------------------------------------|
A|----------------------------------------------------------------------|
D|----------------------------------------------------------------------|

Riff under solo

 E|-------------------------------------------------------------|
 B|-------------------------------------------------------------|
 G|-------------------------------------------------------------| 2x
 D|-5h6h5---3---5---6-5-5h6h5---3---5---6-5---------------------|
 A|-5h6h5---3---5---6-5-5h6h5---3---5---6-5-5h6h5---3---5---5-6-|
 D|-5h6h5-0-3-0-5-0-6-5-5h6h5-0-3-0-5-0-6-5-5h6h5-0-3-0-5-0-5-6-|
pm        .   .   .           .   .   .           .   .   .            

E|-------------|
B|-------------|
G|-------------| 4x
D|-6666-5-5-55-|
A|-6666-5-5-55-|
D|-6666-5-5-55-|

E|------|
B|------|
G|------|
D|------|
A|------|
D|-16/1-|

E|-----------------------|
B|-----------------------|
G|-----------------------|
D|-6-55-8-55-3-5-6-5-3-5-| 3x
A|-6-55-8-55-3-5-6-5-3-5-|
D|-6-55-8-55-3-5-6-5-3-5-|

E|-------------------|
B|-------------------|
G|-------------------|
D|888888-777777-6666-|
A|888888-777777-6666-|
D|888888-777777-6666-|

E|-----------------------|
B|-----------------------|
G|-----------------------|
D|-6-55-8-55-3-5-6-5-3-5-| 3x
A|-6-55-8-55-3-5-6-5-3-5-|
D|-6-55-8-55-3-5-6-5-3-5-|


E|---------------------|
B|---------------------|
G|---------------------|
D|888888-777777-6666-5-|
A|888888-777777-6666-5-|
D|888888-777777-6666-5-|


**************************************

h - hammer on
^ - pinch harmonic
/ - slide
~ - bend
. - palm mute

**************************************
Suggest correction
Give kudos to tab author, rate the tab!
1 2 3 4 5
comments
print report bad tab
guest
You may want to rate the tab now too:
select rating
Wanna post a correction for this tab? Suggest correction