Oops, an error
Loading. Please wait.
We have an official The Passing tab made by UG professional guitarists. Check out the tab »
×
14,032 views 12 this week
1 commentread comment
1 2 3 4 5
x 9
add to favorites
×
Save as Personal and add changes to this tab that will be seen only by you. Learn more ›
×
You can save this tab as Personal to edit and correct it or add notes. All changes will be seen only by you. Learn more »
launch autoscroll
font size
0
reset
how to read this tab
guitar tuner
edit
Autoscroll
slow
fast
+/-
esc
set tempo
stop
Artist: Lamb Of God
Song:   The Passing
Album:  Wrath
Tuning: Drop D (D,A,D,G,B,E)

Here's The Awesome Intro To The Album WRATH.
I'm Pretty Sure This Is Almost 100%. Maybe A Couple Things Off,
But Should Be Close.
Took Me Forever To Get This Considering There's Alot Of
Guitars Going On At Once.

If You Hear The Studio Experience CD That Came With The Deluxe Version,
The Rhythm Guitar Is Almost Exactly The Same As The Bass Parts.

Intro 1 (Acoustic)
E|------------------------------------------------------------------|
B|------------------------------------------------------------------|
G|----------------------4-------0--------------------------------0--|
D|-----2--4-5-4h5p4-2-----4-------4----------2--4-5-4h5p4----4------| [2x]
A|---2----------------------2-------2------0---------------0---5----|
D|-2------------------2-------2-------2--0--------------------------|

Intro 2
|------------------0----------------|
|---------0----------0-----0--------|
|-------2---2----------2-----2------|
|-----0-------0----------0-----0----|
|---3-----------3----------------3--|
|-3---------------------------------|

|---------------------------------|
|---------------------------------|
|---5/7---7/9---9/10--10/9---9/7--|
|---x-x---x-x---x-x----x-x---x-x--|
|---3/5---5/7---7/8----8/7---7/5--|
|-0-----0-----0------0-----0------|

|------------------0----------------|
|---------0----------0-----0--------|
|-------2---2----------2-----2------|
|-----0-------0----------0-----0----|
|---3-----------3----------------3--|
|-3---------------------------------|

Build-Up (Distortion)
|-----------------------------------------|
|-----------------------------------------|
|-----------------------------------------|
|-----------------------------------------|
|-7-8-7-8-7-8-7-8-7-8-7-8-7-8-------------|
|-7-8-7-8-7-8-7-8-7-8-7-8-7-8--0-2-4-5-4--|
 pm.  . . . . . . . . . . . .      . . .
|
|      |---Natural Harmonic----------------|
|------12--------(12)------------(12)------|
|------------------------------------------|
|------------------------------------------|  slowly turn up volume
|------------------------------------------|   on your guitar
|------------------------------------------|
|------------------------------------------|

Verse Section
|-------------------------------------------------------------------------|
|-------------------------------------------------------------------------|
|-------------------------------------------------------------------------|
|-------------------------------------------------------------------------|
|-------------------------------------2-------0-------2-----7----5--4--0--|
|-2--0--5-4-0-2--4--5--4--2--0--5-4-0-2-------0-------2-----7----5--4--0--|
| .              .  .  .  .
|
|-------------------------------------------------------------------------|
|---------------12/17--------------12/17--15/19--(19b)17------------------|
|-16-14-------------------16-14-----------------------------18---16-14-12-|
|-------------------------------------------------------------------------|
|-------------------------------------------------------------------------|
|-------------------------------------------------------------------------|
|
|-------------------------------------------------------------------------|
|-----------------------------------12-10-8-7-5-12-10-8-7-8-12-10-8-7-5---|
|------------------------------------x--x-x-x-x--x--x-x-x-x--x--x-x-x-x---|
|------------------------------------9--7-5-4-2--9--7-5-4-5--9--7-5-4-2---|
|-------------------------------------------------------------------------|
|-------------------------------------------------------------------------|

Section W/Solo
|-----------------------------------------------------------|
|-----------------------------------------------------------|
|-----------------------------------------------------------|
|-----------------------------------------------------------|
|-----------------------------------------------------------|
|-2--------4--------5---------4------2-----0---------5-4-0--|
| .        .        .         .      .     .         . . .  |
|                                                           |
|-----------------------------------------------------------|
|-12/17-----(17)-------(17)---------------------------------|
|-----------------------------------------------16-14-------|    [2x]
|-----------------------------------------------------------|
|-----------------------------------------------------------|
|-----------------------------------------------------------|
|                                                           |
|SOLO                                                       |
|-----------------------------------------------------------|
|-----------------------------------------------------------|
|--16p14----------14-------16p17----------14----14-14--(14)-|
|--------17-16-17----17-16-------17-16-17----17-------------|
|-----------------------------------------------------------|
|-----------------------------------------------------------|

Final Verse Section
|-------------------------------------------------------------------|
|-------------------------------------------------------------------|
|-------------------------------------------------------------------|
|---2-------------0-------------2------------7--------5--4--0--2----|
|---2-------------0-------------2------------7--------5--4--0--2----|
|---2-------------0-------------2------------7--------5--4--0--2----|
|
|-------------------------------------------------------------------|
|-12/17-------15/19--(19)----19b-17---------------------------------|
|--------------------------------------------14-------12-11---16----|
|----------------------------------------------------------12-14----|
|-------------------------------------------------------------------|
|-------------------------------------------------------------------|
|
|-------------------------------------------------------------------|
|-----12-10-8-7-5--12-10-8-7-8--12-10-8-7-5-------------------------|
|------x--x-x-x-x---x--x-x-x-x---x--x-x-x-x-------------------------|
|------9--7-5-4-2---9--7-5-4-5---9--7-5-4-2-------------------------|
|-------------------------------------------------------------------|
|-------------------------------------------------------------------|

The Last Bit, Which Is The Outro, Was Way Too Hard For Me To Tab.
I Could Only Understand A Couple Of Notes, But Not Enough To Tab 'em.
I Think It Sounds Like A Reverse Delay Or Something.

Comment If You see mistakes!

            
            
Suggest correction
Creating personal tab
Creating personal tab
You can edit any tab online and save it as your Personal.

You can edit, replace or remove any tab part or add personal notes – all changes will be seen only by you.

Personal tabs can be accessed anytime from any device, even offline.
Learn more »
comments
print report bad tab
1 comment total.
+2 reply
420ismybday 10 Jan 18, 2010 10:09 AM

You did a good job on tabbing the electric part but you need the rest....other than that your a pretty good tabber 4 stars.

guest
You may want to rate the tab now too:
select rating
Wanna post a correction for this tab? Suggest correction