Oops, an error
Loading. Please wait.

Creep Bass Tab

309 views 1 this week
no commentswrite comment
1 2 3 4 5
please rate
add to favorites
launch autoscroll
font size
0
reset
guitar tuner
Autoscroll
slow
fast
+/-
esc
set tempo
stop
Help us to improve Ultimate-Guitar.com Take our survey!
×
Contributor
Arvid 344
http://en.wikipedia.org/wiki/Lambretta_(band)

Lambretta - Creep (bass tab)
Standard tuning

Tabbed by Arvid

Intro

|-----------------------------------------------------------------|
|-----------------------------------------------------------------|
|-6-6-6-6-6-6-6-6-5-5-5-5-5-5-5-5-3-3-3-3-3-3-3-3-----------------|
|-------------------------------------------------4-4-4-4-4-4-4-4-|

Verse

|-----------------------------------------------------------------|
|-----------------------------------------------------------------|
|-6-6-6-6-6-6-6-6-5-5-5-5-5-5-5-5-3-3-3-3-3-3-3-3-----------------|
|-------------------------------------------------3-3-3-3-3-3-3-3-|

|-----------------------------------------------------------------|
|-----------------------------------------------------------------|
|-----------------------------------------------------------------|
|-4-4-4-4-4-4-4-4-6-6-6-6-6-6-6-6---------------------------------|


|-----------------------------------------------------------------|
|-----------------------------------------------------------------|
|-6-6-6-6-6-6-6-6-5-5-5-5-5-5-5-5-3-3-3-3-3-3-3-3-----------------|
|-------------------------------------------------3-3-3-3-3-3-3-3-|

|-----------------------------------------------------------------|
|-------------------------------------------5-------5-------5-5-5-|
|-----------------------------------------------------------------|
|-4-4-4-4-4-4-4-4-6-6-6-6-6-6-6-6-3-3-3-3-3---3-3-3---3-3-3-------|

Bridge:

|-----------------------------------------------------------------|
|-----------------------------------------------------------------|
|-----------------------------------------------------------------|
|-4-4-4-4-3-4-4-4-6-6-6-6-6-6-6-6-4-4-4-4-3-4-4-4-6--(slide fill)-|


Chorus:

|-----------------------------------------------------------------|
|-----------------------------------------------------------------|
|-6-6-6-6-6-6-6-6-5-5-5-5-5-5-5-5-3-3-3-3-3-3-3-3-----------------|
|-------------------------------------------------4-4-4-4-4-4-4-4-|

|-----------------------------------------------------------------|
|-----------------------------------------------------------------|
|-6-6-6-6-6-6-6-6-5-5-5-5-5-5-5-5---------------------------------|
|---------------------------------4-4-4-4-4-4-4-4-6-6-6-6-6-6-6-6-|

|-----------------------------------------------------------------|
|-----------------------------------------------------------------|
|-6-6-6-6-6-6-6-6-5-5-5-5-5-5-5-5-3-3-3-3-3-3-3-3-----------------|
|-------------------------------------------------4-4-4-4-4-4-4-4-|

|-----------------------------------------------------------------|
|-----------------------------------------------------------------|
|-6-6-6-6-6-6-6-6-5-5-5-5-5-5-5-5---------------------------------|
|---------------------------------4-4-4-4-4-4-4-4-6-6-6-6-6-6-6-6-|

Interlude

|-----------------------------------------------------------------|
|-----------------------------------------------------------------|
|-6-6-6-6-6-6-6-6-5-5-5-5-5-5-5-5-3-3-3-3-3-3-3-3-----------------|
|-------------------------------------------------4-4-4-4-4-4-4-4-|

Verse

Bridge

Chorus

Interlude 2:

|-----------------------------------------------------------------|
|-----------------------------------------------------------------|
|-----------------------------------------------------------------|
|-7-7-7-7-7-7-7-7-9-9-9-9-9-9-9-9-7-7-7-7-7-7-7-7-6-6-6-6-6-6-6-6-|

|-----------------------------------------------------------------|
|-----------------------------------------------------------------|
|-6(let ring)-----------------------------------------------------|
|-----------------------------------------------------------------|

Last chorus

|-----------------------------------------------------------------|
|-----------------------------------------------------------------|
|-6-6-6-6-6-6-6-6-5-5-5-5-5-5-5-5-3-3-3-3-3-3-3-3-----------------|
|-------------------------------------------------4-4-4-4-4-4-4-4-|

|-----------------------------------------------------------------|
|-----------------------------------------------------------------|
|-3-3-3-3-3-3-3-3-------------------------------------------------|
|-----------------6-6-6-6-6-6-6-6-4-4-4-4-4-4-4-4-6--(slide fill)-|

|-----------------------------------------------------------------|
|-----------------------------------------------------------------|
|-6-6-6-6-6-6-6-6-5-5-5-5-5-5-5-5-3-3-3-3-3-3-3-3-----------------|
|-------------------------------------------------4-4-4-4-4-4-4-4-|

|-----------------------------------------------------------------|
|-----------------------------------------------------------------|
|-6-6-6-6-6-6-6-6-5-5-5-5-5-5-5-5---------------------------------|
|---------------------------------4-4-4-4-4-4-4-4-6-6-6-6-6-6-6-6-|

|-----------------------------------------------------------------|
|-----------------------------------------------------------------|
|-6-6-6-6-6-6-6-6-------------------------------------------------|
|-----------------1-1-1-1-1-1-1-1-3-3-3-3-3-3-3-3-4-4-4-4-4-4-4-4-|

|-----------------------------------------------------------------|
|-----------------------------------------------------------------|
|-6-6-6-6-6-6-6-6-5-5-5-5-5-5-5-5---------------------------------|
|---------------------------------1-1-1-1-1-1-1-1-6-6-6-6-6-6-6-6-|

|-----------------------------------------------------------------|
|-----------------------------------------------------------------|
|-6(let ring)\----------------------------------------------------|
|-----------------------------------------------------------------|
Suggest correction new What's this?
You can suggest a correction to this tab. Community and Mods will review your correction and vote to approve or reject it.
comments
We did not receive enough feedback on this tab! Please rate:
print report bad tab
1 2 3 4 5
guest
You may want to rate the tab now too:
select rating
Please do not post tabs as comments. Select "correction" instead!