Oops, an error
Loading. Please wait.

Afraid Bass Tab

387 views 1 this week
no commentswrite comment
1 2 3 4 5
please rate
add to favorites
launch autoscroll
font size
0
reset
guitar tuner
Autoscroll
slow
fast
+/-
esc
set tempo
stop
Help us to improve Ultimate-Guitar.com Take our survey!
×
Author
Difficulty
novice
Verse:
G---------|
D-----4-2-|
A-0-4-----|
E---------|

Pre-chorus:
G-------------|
D-0---2-4-0-2-|
A---0---------|
E-------------|

Chorus 1:
G---------------------|
D-----4-2-----4-2-0---|
A-0-4-----0-4-------0-|
E---------------------|

Chorus 2:
G-----------------|
D-----4-2-----4-2-|
A-0-4-----0-4-----|
E-----------------|

Ending Chorus:
G-----------|
D-----4-2---|
A-0-4-----0-|
E-----------|

Verse x2
Pre-chorus x1
Chorus 1 x1
Verse x2
Pre-chorus x1
Chorus 2 x1
Pre-chorus x1
Chorus 2 x2
Ending Chorus x1
Suggest correction
Give kudos to tab author, rate the tab!
1 2 3 4 5
comments
print report bad tab
guest
You may want to rate the tab now too:
select rating
Wanna post a correction for this tab? Suggest correction