Oops, an error
Loading. Please wait.

Bel Air Chords

54,270 views 198 this week
3 commentsread comments
1 2 3 4 5
x 42
add to favorites
×
Save as Personal and add changes to this tab that will be seen only by you. Learn more ›
×
You can save this tab as Personal to edit and correct it or add notes. All changes will be seen only by you. Learn more »
save as personal
new!
launch autoscroll
font size
0
reset
transpose
0
reset
display chords
guitar tuner
Autoscroll
slow
fast
+/-
esc
set tempo
stop
Author
Strumming
There is no strumming pattern for this song yet. and get +5 IQ
[Intro]

C  Em  C  Em  Dm  Fm


[Verse]

C           Em           C                             Em
Gargoyles, standing, at the front of your gate.
Dm                            Fm
Trying to tell me to wait,
                                  C
But I can’t wait to see you.

        Em                C                      Em
So I run, like I'm mad, to heaven's door.
         Dm
I don't wanna be bad,
            Fm
I won't cheat you no more.


[Chorus]

C                     Em
Roses, Bel Air, take me there,
 Gm                              F
I've been waiting to meet you.
F                                   Am
Palm trees, in the light, i can see, late at night
Cm                            Gm
Darling I'm willing to greet you,
                   F
Come to me baby.

(same chord progression throughout the whole song)


[Verse]

Spotlight, bad baby, you've got a flare
For the violent-est kind of love anywhere out there

Now I'm lost, sweet child of mine,
You're divine.
Didn't anyone ever tell you,
It's okay to shine?


[Chorus]

Roses, Bel Air, take me there,
I've been waiting to meet you.
Palm trees in the light,
I can see, late at night.
Darling I'm willing to greet you,
Come to me baby.


[Bridge]

Don't be afraid of me,
Don't be ashamed.
Walk in the way of my soft resurrection.
I know the roses, I've counted so,
I know your name.
Lead me to war with your brilliant direction.


[Chorus]

Roses Bel Air, take me there,
I've been waiting to meet you.
Palm trees in the light,
I can see, late at night.
Darling I'm willing to greet you,
Come to me baby.

Roses Bel Air, take me there,
I've been waiting to meet you.
Grenadine sunshine, and it fades sublime.
Darling I'm willing to greet you,
Come to me baby.
Suggest correction
comments
print report bad tab
3 comments total.
0 reply
dimitra.zafiri. 10 Mar 04, 2014 11:03 AM

A suggestion for the intro:

e------------------
B-5-3--3-5/9-7--7-9
G----5---------9---
D------------------
A------------------
E------------------

Love to see some responses on that.

0 reply
ultrabeatdown44 126 Sep 26, 2014 03:29 PM

E|-------------|-------------|-0-------0h4-|-0-------0---|
B|---0---0---5-|---0---0---5-|---4---4-----|---4---4---4-|
G|-6-------6---|-6-------6---|-----6-------|-----6-------|
D|-----7-------|-----7-------|-------------|-------------|
A|-------------|-------------|-------------|-------------|
E|-------------|-------------|-------------|-------------|

E|-------------|-------------|-0-------0h4-|-0-------0h4-|
B|---0---0---5-|---0---0---5-|---4---4-----|---4---4-----|
G|-6-------6---|-6-------6---|-----6-------|-----6-------|
D|-----7-------|-----7-------|-------------|-------------|
A|-------------|-------------|-------------|-------------|
E|-------------|-------------|-------------|-------------|

E|-------------|-------------|---0---0---0-|---------0---|
B|-3---0---3---|-3---0---3---|-6-------6---|-8---6-------|
G|---6---6---6-|---6---6---6-|-----7-------|-----------7-|
D|-------------|-------------|-------------|---7---7-----|
A|-------------|-------------|-------------|-------------|
E|-------------|-------------|-------------|-------------|

capo on 3rd, theres ur response bud

guest
You may want to rate the tab now too:
select rating
Wanna post a correction for this tab? Suggest correction